  0
SECTION
  2
HEADER
  9
$ACADVER
  1
AC1015
  9
$ACADMAINTVER
 70
    20
  9
$DWGCODEPAGE
  3
ANSI_1252
  9
$INSBASE
 10
0.0
 20
0.0
 30
0.0
  9
$EXTMIN
 10
48.34058349999998
 20
105.9889281660282
 30
-0.00000001
  9
$EXTMAX
 10
353.600256
 20
376.0253955
 30
0.00000001
  9
$LIMMIN
 10
0.0
 20
0.0
  9
$LIMMAX
 10
410.0
 20
287.0
  9
$ORTHOMODE
 70
     0
  9
$REGENMODE
 70
     1
  9
$FILLMODE
 70
     1
  9
$QTEXTMODE
 70
     0
  9
$MIRRTEXT
 70
     1
  9
$LTSCALE
 40
1.0
  9
$ATTMODE
 70
     1
  9
$TEXTSIZE
 40
3.5
  9
$TRACEWID
 40
0.05
  9
$TEXTSTYLE
  7
STANDARD
  9
$CLAYER
  8
MSRI3_6-0
  9
$CELTYPE
  6
BYLAYER
  9
$CECOLOR
 62
   256
  9
$CELTSCALE
 40
1.0
  9
$DISPSILH
 70
     0
  9
$DIMSCALE
 40
1.0
  9
$DIMASZ
 40
0.18
  9
$DIMEXO
 40
0.0625
  9
$DIMDLI
 40
0.38
  9
$DIMRND
 40
0.0
  9
$DIMDLE
 40
0.0
  9
$DIMEXE
 40
0.18
  9
$DIMTP
 40
0.0
  9
$DIMTM
 40
0.0
  9
$DIMTXT
 40
0.18
  9
$DIMCEN
 40
0.09
  9
$DIMTSZ
 40
0.0
  9
$DIMTOL
 70
     0
  9
$DIMLIM
 70
     0
  9
$DIMTIH
 70
     1
  9
$DIMTOH
 70
     1
  9
$DIMSE1
 70
     0
  9
$DIMSE2
 70
     0
  9
$DIMTAD
 70
     0
  9
$DIMZIN
 70
     0
  9
$DIMBLK
  1

  9
$DIMASO
 70
     1
  9
$DIMSHO
 70
     1
  9
$DIMPOST
  1

  9
$DIMAPOST
  1

  9
$DIMALT
 70
     0
  9
$DIMALTD
 70
     2
  9
$DIMALTF
 40
25.4
  9
$DIMLFAC
 40
1.0
  9
$DIMTOFL
 70
     0
  9
$DIMTVP
 40
0.0
  9
$DIMTIX
 70
     0
  9
$DIMSOXD
 70
     0
  9
$DIMSAH
 70
     0
  9
$DIMBLK1
  1

  9
$DIMBLK2
  1

  9
$DIMSTYLE
  2
STANDARD
  9
$DIMCLRD
 70
     0
  9
$DIMCLRE
 70
     0
  9
$DIMCLRT
 70
     0
  9
$DIMTFAC
 40
1.0
  9
$DIMGAP
 40
0.09
  9
$DIMJUST
 70
     0
  9
$DIMSD1
 70
     0
  9
$DIMSD2
 70
     0
  9
$DIMTOLJ
 70
     1
  9
$DIMTZIN
 70
     0
  9
$DIMALTZ
 70
     0
  9
$DIMALTTZ
 70
     0
  9
$DIMUPT
 70
     0
  9
$DIMDEC
 70
     4
  9
$DIMTDEC
 70
     4
  9
$DIMALTU
 70
     2
  9
$DIMALTTD
 70
     2
  9
$DIMTXSTY
  7
STANDARD
  9
$DIMAUNIT
 70
     0
  9
$DIMADEC
 70
     0
  9
$DIMALTRND
 40
0.0
  9
$DIMAZIN
 70
     0
  9
$DIMDSEP
 70
    46
  9
$DIMATFIT
 70
     3
  9
$DIMFRAC
 70
     0
  9
$DIMLDRBLK
  1

  9
$DIMLUNIT
 70
     2
  9
$DIMLWD
 70
    -2
  9
$DIMLWE
 70
    -2
  9
$DIMTMOVE
 70
     0
  9
$LUNITS
 70
     2
  9
$LUPREC
 70
     4
  9
$SKETCHINC
 40
0.1
  9
$FILLETRAD
 40
12.5
  9
$AUNITS
 70
     0
  9
$AUPREC
 70
     0
  9
$MENU
  1
acad
  9
$ELEVATION
 40
0.0
  9
$PELEVATION
 40
0.0
  9
$THICKNESS
 40
0.0
  9
$LIMCHECK
 70
     0
  9
$CHAMFERA
 40
12.5
  9
$CHAMFERB
 40
12.5
  9
$CHAMFERC
 40
0.0
  9
$CHAMFERD
 40
0.0
  9
$SKPOLY
 70
     0
  9
$TDCREATE
 40
2450847.345218565
  9
$TDUCREATE
 40
2450847.261885232
  9
$TDUPDATE
 40
2456226.383451713
  9
$TDUUPDATE
 40
2456226.300118380
  9
$TDINDWG
 40
0.0213104977
  9
$TDUSRTIMER
 40
0.0213104977
  9
$USRTIMER
 70
     1
  9
$ANGBASE
 50
0.0
  9
$ANGDIR
 70
     0
  9
$PDMODE
 70
     0
  9
$PDSIZE
 40
18.58689171958762
  9
$PLINEWID
 40
0.0
  9
$SPLFRAME
 70
     0
  9
$SPLINETYPE
 70
     6
  9
$SPLINESEGS
 70
     8
  9
$HANDSEED
  5
1168
  9
$SURFTAB1
 70
     6
  9
$SURFTAB2
 70
     6
  9
$SURFTYPE
 70
     6
  9
$SURFU
 70
     6
  9
$SURFV
 70
     6
  9
$UCSBASE
  2

  9
$UCSNAME
  2

  9
$UCSORG
 10
0.0
 20
0.0
 30
0.0
  9
$UCSXDIR
 10
1.0
 20
0.0
 30
0.0
  9
$UCSYDIR
 10
0.0
 20
1.0
 30
0.0
  9
$UCSORTHOREF
  2

  9
$UCSORTHOVIEW
 70
     0
  9
$UCSORGTOP
 10
0.0
 20
0.0
 30
0.0
  9
$UCSORGBOTTOM
 10
0.0
 20
0.0
 30
0.0
  9
$UCSORGLEFT
 10
0.0
 20
0.0
 30
0.0
  9
$UCSORGRIGHT
 10
0.0
 20
0.0
 30
0.0
  9
$UCSORGFRONT
 10
0.0
 20
0.0
 30
0.0
  9
$UCSORGBACK
 10
0.0
 20
0.0
 30
0.0
  9
$PUCSBASE
  2

  9
$PUCSNAME
  2

  9
$PUCSORG
 10
0.0
 20
0.0
 30
0.0
  9
$PUCSXDIR
 10
1.0
 20
0.0
 30
0.0
  9
$PUCSYDIR
 10
0.0
 20
1.0
 30
0.0
  9
$PUCSORTHOREF
  2

  9
$PUCSORTHOVIEW
 70
     0
  9
$PUCSORGTOP
 10
0.0
 20
0.0
 30
0.0
  9
$PUCSORGBOTTOM
 10
0.0
 20
0.0
 30
0.0
  9
$PUCSORGLEFT
 10
0.0
 20
0.0
 30
0.0
  9
$PUCSORGRIGHT
 10
0.0
 20
0.0
 30
0.0
  9
$PUCSORGFRONT
 10
0.0
 20
0.0
 30
0.0
  9
$PUCSORGBACK
 10
0.0
 20
0.0
 30
0.0
  9
$USERI1
 70
     0
  9
$USERI2
 70
     0
  9
$USERI3
 70
     0
  9
$USERI4
 70
     0
  9
$USERI5
 70
     0
  9
$USERR1
 40
0.0
  9
$USERR2
 40
0.0
  9
$USERR3
 40
0.0
  9
$USERR4
 40
0.0
  9
$USERR5
 40
0.0
  9
$WORLDVIEW
 70
     1
  9
$SHADEDGE
 70
     3
  9
$SHADEDIF
 70
    70
  9
$TILEMODE
 70
     1
  9
$MAXACTVP
 70
    16
  9
$PINSBASE
 10
0.0
 20
0.0
 30
0.0
  9
$PLIMCHECK
 70
     0
  9
$PEXTMIN
 10
1.000000000000000E+20
 20
1.000000000000000E+20
 30
1.000000000000000E+20
  9
$PEXTMAX
 10
-1.000000000000000E+20
 20
-1.000000000000000E+20
 30
-1.000000000000000E+20
  9
$PLIMMIN
 10
0.0
 20
0.0
  9
$PLIMMAX
 10
12.0
 20
9.0
  9
$UNITMODE
 70
     0
  9
$VISRETAIN
 70
     0
  9
$PLINEGEN
 70
     0
  9
$PSLTSCALE
 70
     1
  9
$TREEDEPTH
 70
  3020
  9
$CMLSTYLE
  2
STANDARD
  9
$CMLJUST
 70
     0
  9
$CMLSCALE
 40
1.0
  9
$PROXYGRAPHICS
 70
     1
  9
$MEASUREMENT
 70
     1
  9
$CELWEIGHT
370
    -1
  9
$ENDCAPS
280
     0
  9
$JOINSTYLE
280
     0
  9
$LWDISPLAY
290
     0
  9
$INSUNITS
 70
     4
  9
$HYPERLINKBASE
  1

  9
$STYLESHEET
  1

  9
$XEDIT
290
     1
  9
$CEPSNTYPE
380
     0
  9
$PSTYLEMODE
290
     1
  9
$FINGERPRINTGUID
  2
{1452E74D-1E4D-4553-AD06-1D68F0CB30AC}
  9
$VERSIONGUID
  2
{C47DBA89-E62C-4DFE-93C7-ED7E3432DBFA}
  9
$EXTNAMES
290
     1
  9
$PSVPSCALE
 40
0.0
  9
$OLESTARTUP
290
     0
  0
ENDSEC
  0
SECTION
  2
CLASSES
  0
CLASS
  1
ACDBDICTIONARYWDFLT
  2
AcDbDictionaryWithDefault
  3
ObjectDBX Classes
 90
        0
280
     0
281
     0
  0
CLASS
  1
MATERIAL
  2
AcDbMaterial
  3
ObjectDBX Classes
 90
     1153
280
     0
281
     0
  0
CLASS
  1
VISUALSTYLE
  2
AcDbVisualStyle
  3
ObjectDBX Classes
 90
     4095
280
     0
281
     0
  0
CLASS
  1
TABLESTYLE
  2
AcDbTableStyle
  3
ObjectDBX Classes
 90
     4095
280
     0
281
     0
  0
CLASS
  1
SCALE
  2
AcDbScale
  3
ObjectDBX Classes
 90
     1153
280
     0
281
     0
  0
CLASS
  1
MLEADERSTYLE
  2
AcDbMLeaderStyle
  3
ACDB_MLEADERSTYLE_CLASS
 90
     4095
280
     0
281
     0
  0
CLASS
  1
ACME_DOCUMENT
  2
AcMeDbDoc
  3
AcMeServices
 90
     1024
280
     0
281
     0
  0
CLASS
  1
AMGSETTINGSOBJ
  2
AmgSettingsObj
  3
"AcadM|Product Description: AutoCAD Mechanical|Company: Autodesk, Inc."
 90
     1024
280
     0
281
     0
  0
CLASS
  1
ACMESCOPE
  2
AcMeScope
  3
AcMeServices
 90
     1024
280
     0
281
     0
  0
CLASS
  1
ACMECOMMANDHISTORY
  2
AcMeCommandHistory
  3
AcMeServices
 90
     1024
280
     0
281
     0
  0
CLASS
  1
ACIMSYSVARMAN
  2
AcImSysVarManager
  3
AcMeServices
 90
     1024
280
     0
281
     0
  0
CLASS
  1
ACIMINTSYSVAR
  2
AcImIntSysVar
  3
AcMeServices
 90
     1024
280
     0
281
     0
  0
CLASS
  1
ACMEDRAWINGMAN
  2
AcMeDrawingMan
  3
AcMeServices
 90
     1024
280
     0
281
     0
  0
CLASS
  1
ACMEVIEW
  2
AcMeView
  3
AcMeServices
 90
     1024
280
     0
281
     0
  0
CLASS
  1
ACDBENTITYCACHE
  2
AcMeEntityCache
  3
AcMeServices
 90
     1024
280
     0
281
     0
  0
CLASS
  1
GSMANAGER
  2
AcMeGSManager
  3
AcMeServices
 90
     1024
280
     0
281
     0
  0
CLASS
  1
AMDTINTERNALREACTOR
  2
AmdtInternalReactor
  3
AcMeServices
 90
     1024
280
     0
281
     0
  0
CLASS
  1
ACMESTATEMGR
  2
AcMeStateMgr
  3
AcMeServices
 90
     1024
280
     0
281
     0
  0
CLASS
  1
ACGREFMASTER
  2
AcGrefMaster
  3
AcAttribServices
 90
     1024
280
     0
281
     0
  0
CLASS
  1
AM_DRAWING_MGR
  2
AcDmDwgMgr
  3
AcMechDwgViewMgmt
 90
     1024
280
     0
281
     0
  0
CLASS
  1
AM_DWG_DOCUMENT
  2
AcDmDwgDocument
  3
AcMechDwgViewMgmt
 90
     1024
280
     0
281
     0
  0
CLASS
  1
AM_DWG_SHEET
  2
AcDmSheet
  3
AcMechDwgViewMgmt
 90
     1024
280
     0
281
     0
  0
CLASS
  1
AM_VIEWDIMPARMAP
  2
AcDmViewDimParMap
  3
AcMechDwgViewMgmt
 90
     1024
280
     0
281
     0
  0
CLASS
  1
ACIMREALSYSVAR
  2
AcImRealSysVar
  3
AcMeServices
 90
     1024
280
     0
281
     0
  0
CLASS
  1
AM_DWGMGR_NAME
  2
AcDmDwgMgrName
  3
AcMechDwgViewMgmt
 90
     1024
280
     0
281
     0
  0
CLASS
  1
ACME_DATABASE
  2
AcMeDbDatabase
  3
AcMeServices
 90
     1024
280
     0
281
     0
  0
CLASS
  1
ACRFINSADJUSTERMGR
  2
AcRfInsAdjusterMgr
  3
AcMeServices
 90
     1024
280
     0
281
     0
  0
CLASS
  1
ACGREFACADMASTER
  2
AcGrefacadMaster
  3
AcGrefServices
 90
     1024
280
     0
281
     0
  0
CLASS
  1
AMDTMENUSTATEMGR
  2
AmdtMenuStateMgr
  3
McadcomServices
 90
     1024
280
     0
281
     0
  0
CLASS
  1
AMDTMCOMMENUSTATE
  2
AmdtMcomMenuState
  3
McadcomServices
 90
     1024
280
     0
281
     0
  0
CLASS
  1
AMIMASTER
  2
AmiMaster
  3
AmiServices
 90
     1024
280
     0
281
     0
  0
CLASS
  1
MAPIAMMOUDLE
  2
MApiAmModule
  3
MApiAmServices
 90
     1024
280
     0
281
     0
  0
CLASS
  1
ACIMSTRSYSVAR
  2
AcImStrSysVar
  3
AcMeServices
 90
     1024
280
     0
281
     0
  0
CLASS
  1
AMDTADMENUSTATE
  2
AmdtAdMenuState
  3
DesignerServices
 90
     1024
280
     0
281
     0
  0
CLASS
  1
ADAPPL
  2
AcAdAppl
  3
DesignerServices
 90
     1024
280
     0
281
     0
  0
CLASS
  1
DEPMGR
  2
AcAdDepMgr
  3
DesignerServices
 90
     1024
280
     0
281
     0
  0
CLASS
  1
PARAMMGR
  2
AcAdParamMgr
  3
DesignerServices
 90
     1024
280
     0
281
     0
  0
CLASS
  1
PARAMSCOPE
  2
AcAdParamScope
  3
DesignerServices
 90
     1024
280
     0
281
     0
  0
CLASS
  1
NAMEDAPPL
  2
AcAdNamedAppl
  3
DesignerServices
 90
     1024
280
     0
281
     0
  0
CLASS
  1
AMDTDMMENUSTATE
  2
AmdtDmMenuState
  3
AcMechDwgViewMgmt
 90
     1024
280
     0
281
     0
  0
CLASS
  1
AMDTAMMENUSTATE
  2
AmdtAmMenuState
  3
DesignerAssemblies
 90
     1024
280
     0
281
     0
  0
CLASS
  1
ACAMPROJECT
  2
AcAmProject
  3
DesignerAssemblies
 90
     1024
280
     0
281
     0
  0
CLASS
  1
ACAMGRCOMPDEF
  2
AcAmGrCompDef
  3
DesignerAssemblies
 90
     1024
280
     0
281
     0
  0
CLASS
  1
ACCMCONTEXT
  2
AcCmContext
  3
DesignerAssemblies
 90
     1024
280
     0
281
     0
  0
CLASS
  1
ACAMCOMPDEF
  2
AcAmCompDef
  3
DesignerAssemblies
 90
     1024
280
     0
281
     0
  0
CLASS
  1
ACAMCOMPDEFMGR
  2
AcAmCompDefMgr
  3
DesignerAssemblies
 90
     1024
280
     0
281
     0
  0
CLASS
  1
AMCONTEXTMGR
  2
AcAmContextMgr
  3
DesignerAssemblies
 90
     1024
280
     0
281
     0
  0
CLASS
  1
ACAMCONTEXTMODELER
  2
AcAmContextModeler
  3
DesignerAssemblies
 90
     1024
280
     0
281
     0
  0
CLASS
  1
ACMDATADICTIONARY
  2
AcmDataDictionary
  3
"AcmSymBB|Product Description: AutoCAD Mechanical|Company: Autodesk, Inc."
 90
     1024
280
     0
281
     0
  0
CLASS
  1
CATALOGSTATE
  2
AcAmCatalogState
  3
DesignerAssemblies
 90
     1024
280
     0
281
     0
  0
CLASS
  1
ACAMGRCOMPDEFSET
  2
AcAmGrCompDefSet
  3
DesignerAssemblies
 90
     1024
280
     0
281
     0
  0
CLASS
  1
AMDTBROWSERDBTAB
  2
AmdtBrowserDbTab
  3
McadcomServices
 90
     1024
280
     0
281
     0
  0
CLASS
  1
CBROWSERAPPOBJECT
  2
CBrowserAppObject
  3
McadcomServices
 90
     1024
280
     0
281
     0
  0
CLASS
  1
DM_PLACEHOLDER
  2
AcDmSelsetPlaceholder
  3
AcMechDwgViewMgmt
 90
     1024
280
     0
281
     0
  0
CLASS
  1
ACMSTANDARDANSI
  2
AcmStandardANSI
  3
"Amdt_StdImp|Product Description: AutoCAD Mechanical|Company: Autodesk, Inc."
 90
     1024
280
     0
281
     0
  0
CLASS
  1
ACMSURFSTANDARDANSI
  2
AcmSurfTextStdANSI
  3
"Amdt_StdImp|Product Description: AutoCAD Mechanical|Company: Autodesk, Inc."
 90
     1024
280
     0
281
     0
  0
CLASS
  1
ACMFCFSTANDARDANSI
  2
AcmFCFStdANSI
  3
"Amdt_StdImp|Product Description: AutoCAD Mechanical|Company: Autodesk, Inc."
 90
     1024
280
     0
281
     0
  0
CLASS
  1
ACMWELDSTANDARDANSI
  2
AcmWeldingStdANSI
  3
"Amdt_StdImp|Product Description: AutoCAD Mechanical|Company: Autodesk, Inc."
 90
     1024
280
     0
281
     0
  0
CLASS
  1
ACMIDSTANDARDANSI
  2
AcmIdStdANSI
  3
"Amdt_StdImp|Product Description: AutoCAD Mechanical|Company: Autodesk, Inc."
 90
     1024
280
     0
281
     0
  0
CLASS
  1
ACMDATUMSTANDARDANSI
  2
AcmDatumStdANSI
  3
"Amdt_StdImp|Product Description: AutoCAD Mechanical|Company: Autodesk, Inc."
 90
     1024
280
     0
281
     0
  0
CLASS
  1
ACMBOMSTANDARDANSI
  2
AcmBOMStdANSI
  3
"Amdt_StdImp|Product Description: AutoCAD Mechanical|Company: Autodesk, Inc."
 90
     1024
280
     0
281
     0
  0
CLASS
  1
ACMDETAILSTANDARDANSI
  2
AmdtDetailSymStdANSI
  3
"Amdt_StdImp|Product Description: AutoCAD Mechanical|Company: Autodesk, Inc."
 90
     1024
280
     0
281
     0
  0
CLASS
  1
ACMSECTIONSTANDARDANSI
  2
AmdtSectionSymStdANSI
  3
"Amdt_StdImp|Product Description: AutoCAD Mechanical|Company: Autodesk, Inc."
 90
     1024
280
     0
281
     0
  0
CLASS
  1
ACMCENTERLINESTANDARDANSI
  2
AmdtCenterLineStdANSI
  3
"Amdt_StdImp|Product Description: AutoCAD Mechanical|Company: Autodesk, Inc."
 90
     1024
280
     0
281
     0
  0
CLASS
  1
ACMTHREADLINESTANDARDANSI
  2
AmdtThreadLineStdANSI
  3
"Amdt_StdImp|Product Description: AutoCAD Mechanical|Company: Autodesk, Inc."
 90
     1024
280
     0
281
     0
  0
CLASS
  1
ACMNOTESTANDARDANSI
  2
AmdtNoteStdANSI
  3
"Amdt_StdImp|Product Description: AutoCAD Mechanical|Company: Autodesk, Inc."
 90
     1024
280
     0
281
     0
  0
CLASS
  1
ACMTAPERSTANDARDANSI
  2
AcmTaperStdANSI
  3
"Amdt_StdImp|Product Description: AutoCAD Mechanical|Company: Autodesk, Inc."
 90
     1024
280
     0
281
     0
  0
CLASS
  1
ACMANOOTATIONVIEWSTANDARDANSI
  2
AmdtAnViewStdANSI
  3
"Amdt_StdImp|Product Description: AutoCAD Mechanical|Company: Autodesk, Inc."
 90
     1024
280
     0
281
     0
  0
CLASS
  1
ACAMGLAYSTD
  2
AcAmgLayStd
  3
"AmgLay|Product Description: AutoCAD Mechanical|Company: Autodesk, Inc."
 90
     1024
280
     0
281
     0
  0
CLASS
  1
ACAMGDIMSTD
  2
AcAmgDimStd
  3
"AmgDim|Product Description: AutoCAD Mechanical|Company: Autodesk, Inc."
 90
     1024
280
     0
281
     0
  0
CLASS
  1
AMGOBJPROPCFG
  2
AmgObjPropCfg
  3
"AmgLay|Product Description: AutoCAD Mechanical|Company: Autodesk, Inc."
 90
     1025
280
     0
281
     0
  0
CLASS
  1
ACAMGHOLECHARTSTDANSI
  2
AcAmgHoleChartStdANSI
  3
AmgDim|Product Description: AutoCAD Mechanical|Company: Autodesk, Inc.
 90
     1024
280
     0
281
     0
  0
CLASS
  1
ACAMGTITLESTD
  2
AcAmgTitleStd
  3
"AmgTitle|Product Description: AutoCAD Mechanical|Company: Autodesk, Inc."
 90
     4095
280
     0
281
     0
  0
CLASS
  1
AMDTNOTETEMPLATEDB
  2
AmdtNoteTemplateDB
  3
AcmSymBB|Product Description: AutoCAD Mechanical|Company: Autodesk, Inc.
 90
     1024
280
     0
281
     0
  0
CLASS
  1
ACAMGFILTERDAT
  2
AcAmgFilterDat
  3
"AcadM|Product Description: AutoCAD Mechanical|Company: Autodesk, Inc."
 90
     1024
280
     0
281
     0
  0
CLASS
  1
DICTIONARYVAR
  2
AcDbDictionaryVar
  3
ObjectDBX Classes
 90
        0
280
     0
281
     0
  0
CLASS
  1
CELLSTYLEMAP
  2
AcDbCellStyleMap
  3
ObjectDBX Classes
 90
     1152
280
     0
281
     0
  0
CLASS
  1
ACDBPLACEHOLDER
  2
AcDbPlaceHolder
  3
ObjectDBX Classes
 90
        0
280
     0
281
     0
  0
CLASS
  1
LAYOUT
  2
AcDbLayout
  3
ObjectDBX Classes
 90
        0
280
     0
281
     0
  0
ENDSEC
  0
SECTION
  2
TABLES
  0
TABLE
  2
VPORT
  5
8
330
0
100
AcDbSymbolTable
 70
     1
  0
VPORT
  5
1047
330
8
100
AcDbSymbolTableRecord
100
AcDbViewportTableRecord
  2
*ACTIVE
 70
     0
 10
0.0
 20
0.0
 11
1.0
 21
1.0
 12
269.3384283661225
 22
250.6672013220798
 13
0.0
 23
0.0
 14
5.0
 24
5.0
 15
50.0
 25
50.0
 16
0.0
 26
0.0
 36
1.0
 17
0.0
 27
0.0
 37
0.0
 40
356.8656631455962
 41
1.548186528497408
 42
50.0
 43
0.0
 44
0.0
 50
0.0
 51
0.0
 71
     0
 72
   100
 73
     1
 74
     0
 75
     0
 76
     0
 77
     0
 78
     0
281
     0
 65
     1
110
0.0
120
0.0
130
0.0
111
1.0
121
0.0
131
0.0
112
0.0
122
1.0
132
0.0
 79
     0
146
0.0
  0
ENDTAB
  0
TABLE
  2
LTYPE
  5
5
330
0
100
AcDbSymbolTable
 70
    22
  0
LTYPE
  5
14
330
5
100
AcDbSymbolTableRecord
100
AcDbLinetypeTableRecord
  2
BYBLOCK
 70
     0
  3

 72
    65
 73
     0
 40
0.0
  0
LTYPE
  5
15
330
5
100
AcDbSymbolTableRecord
100
AcDbLinetypeTableRecord
  2
BYLAYER
 70
     0
  3

 72
    65
 73
     0
 40
0.0
  0
LTYPE
  5
16
330
5
100
AcDbSymbolTableRecord
100
AcDbLinetypeTableRecord
  2
CONTINUOUS
 70
     0
  3
Solid line
 72
    65
 73
     0
 40
0.0
  0
LTYPE
  5
50
330
5
100
AcDbSymbolTableRecord
100
AcDbLinetypeTableRecord
  2
GEN7
 70
     0
  3
____ . ____ . ____ . ____ . ____ . ____ . ____
 72
    65
 73
     4
 40
13.75
 49
10.0
 74
     0
 49
-1.25
 74
     0
 49
1.25
 74
     0
 49
-1.25
 74
     0
  0
LTYPE
  5
51
330
5
100
AcDbSymbolTableRecord
100
AcDbLinetypeTableRecord
  2
GEN3
 70
     0
  3
-- -- -- -- -- -- -- -- -- -- -- -- -- -- --
 72
    65
 73
     2
 40
6.25
 49
5.0
 74
     0
 49
-1.25
 74
     0
  0
LTYPE
  5
4B7
330
5
100
AcDbSymbolTableRecord
100
AcDbLinetypeTableRecord
  2
GEN4A
 70
     0
  3
_____ . . _____ . . _____ . . ____ .. ____
 72
    65
 73
     6
 40
16.25
 49
10.0
 74
     0
 49
-1.25
 74
     0
 49
1.25
 74
     0
 49
-1.25
 74
     0
 49
1.25
 74
     0
 49
-1.25
 74
     0
  0
LTYPE
  5
513
330
5
100
AcDbSymbolTableRecord
100
AcDbLinetypeTableRecord
  2
GEN7A
 70
     0
  3
__ . __ . __
 72
    65
 73
     4
 40
6.875
 49
5.0
 74
     0
 49
-0.625
 74
     0
 49
0.625
 74
     0
 49
-0.625
 74
     0
  0
LTYPE
  5
10D6
330
5
100
AcDbSymbolTableRecord
100
AcDbLinetypeTableRecord
  2
HIDDEN
 70
     0
  3
Verdeckt
 72
    65
 73
     2
 40
0.375
 49
0.25
 74
     0
 49
-0.125
 74
     0
  0
LTYPE
  5
10D7
330
5
100
AcDbSymbolTableRecord
100
AcDbLinetypeTableRecord
  2
PHANTOM2
 70
     0
  3
Phantom (.5x) ___ _ _ ___ _ _ ___ _ _ ___ _ _
 72
    65
 73
     6
 40
1.25
 49
0.625
 74
     0
 49
-0.125
 74
     0
 49
0.125
 74
     0
 49
-0.125
 74
     0
 49
0.125
 74
     0
 49
-0.125
 74
     0
  0
LTYPE
  5
10D8
330
5
100
AcDbSymbolTableRecord
100
AcDbLinetypeTableRecord
  2
CENTER
 70
     0
  3
Mitte ____ _ ____ _ ____ _ ____ _ ____ _ ____
 72
    65
 73
     4
 40
2.0
 49
1.25
 74
     0
 49
-0.25
 74
     0
 49
0.25
 74
     0
 49
-0.25
 74
     0
  0
LTYPE
  5
111D
330
5
100
AcDbSymbolTableRecord
100
AcDbLinetypeTableRecord
  2
AM_ISO02W050
 70
     0
  3
__ __ __ __ __ __ __ __ __ __ __ __ __ __ __
 72
    65
 73
     2
 40
7.5
 49
6.0
 74
     0
 49
-1.5
 74
     0
  0
LTYPE
  5
111E
330
5
100
AcDbSymbolTableRecord
100
AcDbLinetypeTableRecord
  2
AM_ISO08W050
 70
     0
  3
____ . ____ . ____ . ____ . ____ . ____ . ____
 72
    65
 73
     4
 40
18.0
 49
12.0
 74
     0
 49
-1.5
 74
     0
 49
3.0
 74
     0
 49
-1.5
 74
     0
  0
LTYPE
  5
111F
330
5
100
AcDbSymbolTableRecord
100
AcDbLinetypeTableRecord
  2
AM_ISO09W050
 70
     0
  3
_____ . . _____ . . _____ . . ____ .. ____
 72
    65
 73
     6
 40
22.5
 49
12.0
 74
     0
 49
-1.5
 74
     0
 49
3.0
 74
     0
 49
-1.5
 74
     0
 49
3.0
 74
     0
 49
-1.5
 74
     0
  0
LTYPE
  5
1120
330
5
100
AcDbSymbolTableRecord
100
AcDbLinetypeTableRecord
  2
Amconstr
 70
     0
  3
_______________________
 72
    65
 73
     2
 40
9999.0
 49
9999.0
 74
     0
 49
0.0
 74
     0
  0
LTYPE
  5
1121
330
5
100
AcDbSymbolTableRecord
100
AcDbLinetypeTableRecord
  2
AM_ISO08W050x2
 70
     0
  3
__ . __ . __ . __ . __ . __
 72
    65
 73
     4
 40
9.0
 49
6.0
 74
     0
 49
-0.75
 74
     0
 49
1.5
 74
     0
 49
-0.75
 74
     0
  0
LTYPE
  5
1122
330
5
100
AcDbSymbolTableRecord
100
AcDbLinetypeTableRecord
  2
AM_ISO02W050x2
 70
     0
  3
 _ _ _ _ _ _ _ _ _ _ _ _
 72
    65
 73
     2
 40
3.75
 49
3.0
 74
     0
 49
-0.75
 74
     0
  0
LTYPE
  5
1125
330
5
100
AcDbSymbolTableRecord
100
AcDbLinetypeTableRecord
  2
Amzigzag
 70
     0
  3
/\/-/\/-/\/-/\/-/\/-/\/
 72
    65
 73
     2
 40
11.0001
 49
0.0001
 74
     4
 75
   136
340
1124
 46
0.04
 50
0.0
 44
0.0
 45
0.0
 49
-11.0
 74
     0
  0
LTYPE
  5
1126
330
5
100
AcDbSymbolTableRecord
100
AcDbLinetypeTableRecord
  2
CENTER2
 70
     0
  3
Center (.5x) ___ _ ___ _ ___ _ ___ _ ___ _ ___
 72
    65
 73
     4
 40
1.125
 49
0.75
 74
     0
 49
-0.125
 74
     0
 49
0.125
 74
     0
 49
-0.125
 74
     0
  0
LTYPE
  5
1127
330
5
100
AcDbSymbolTableRecord
100
AcDbLinetypeTableRecord
  2
HIDDEN2
 70
     0
  3
Hidden (.5x) _ _ _ _ _ _ _ _ _ _ _ _ _ _ _ _ _
 72
    65
 73
     2
 40
0.1875
 49
0.125
 74
     0
 49
-0.0625
 74
     0
  0
LTYPE
  5
1128
330
5
100
AcDbSymbolTableRecord
100
AcDbLinetypeTableRecord
  2
Amzigzag2
 70
     0
  3
/\/-/\/-/\/-/\/-/\/-/\/
 72
    65
 73
     2
 40
0.4401
 49
0.0001
 74
     4
 75
   136
340
1124
 46
0.0016
 50
0.0
 44
0.0
 45
0.0
 49
-0.4400000000000001
 74
     0
  0
LTYPE
  5
1136
330
5
100
AcDbSymbolTableRecord
100
AcDbLinetypeTableRecord
  2
ACANSTGBM
 70
     0
  3
__ . . __ . .
 72
    65
 73
     6
 40
9.0
 49
4.0
 74
     0
 49
-1.0
 74
     0
 49
1.0
 74
     0
 49
-1.0
 74
     0
 49
1.0
 74
     0
 49
-1.0
 74
     0
  0
LTYPE
  5
1137
330
5
100
AcDbSymbolTableRecord
100
AcDbLinetypeTableRecord
  2
ACANSTGLM
 70
     0
  3
_ _ _ _ _
 72
    65
 73
     2
 40
3.0
 49
2.0
 74
     0
 49
-1.0
 74
     0
  0
LTYPE
  5
1145
330
5
100
AcDbSymbolTableRecord
100
AcDbLinetypeTableRecord
  2
gen3a
 70
     0
  3
 - - - - -
 72
    65
 73
     2
 40
3.125
 49
2.25
 74
     0
 49
-0.875
 74
     0
  0
LTYPE
  5
1146
330
5
100
AcDbSymbolTableRecord
100
AcDbLinetypeTableRecord
  2
genzigzag
 70
     0
  3
/\/-/\/-/\/-/\/-/\/-/\/
 72
    65
 73
     2
 40
12.0001
 49
0.0001
 74
     4
 75
   135
340
1124
 46
2.0
 50
0.0
 44
0.0
 45
0.0
 49
-12.0
 74
     0
  0
ENDTAB
  0
TABLE
  2
LAYER
  5
2
330
0
100
AcDbSymbolTable
 70
    17
  0
LAYER
  5
F
330
2
100
AcDbSymbolTableRecord
100
AcDbLayerTableRecord
  2
0
 70
     0
 62
     7
  6
CONTINUOUS
370
    -3
390
104A
  0
LAYER
  5
52
330
2
100
AcDbSymbolTableRecord
100
AcDbLayerTableRecord
  2
MSRI3_6-0
 70
     0
 62
     7
  6
CONTINUOUS
370
    -3
390
104A
  0
LAYER
  5
53
330
2
100
AcDbSymbolTableRecord
100
AcDbLayerTableRecord
  2
MSRI3_6-4
 70
     0
 62
     3
  6
CONTINUOUS
370
    -3
390
104A
  0
LAYER
  5
54
330
2
100
AcDbSymbolTableRecord
100
AcDbLayerTableRecord
  2
MSRI3_6-3
 70
     0
 62
     6
  6
GEN3
370
    -3
390
104A
  0
LAYER
  5
55
330
2
100
AcDbSymbolTableRecord
100
AcDbLayerTableRecord
  2
MSRI3_6-7
 70
     0
 62
     4
  6
GEN7
370
    -3
390
104A
  0
LAYER
  5
56
330
2
100
AcDbSymbolTableRecord
100
AcDbLayerTableRecord
  2
MSRI3_6-8
 70
     0
 62
     1
  6
CONTINUOUS
370
    -3
390
104A
  0
LAYER
  5
4B6
330
2
100
AcDbSymbolTableRecord
100
AcDbLayerTableRecord
  2
4A
 70
     0
 62
     3
  6
GEN4A
370
    -3
390
104A
  0
LAYER
  5
4B9
330
2
100
AcDbSymbolTableRecord
100
AcDbLayerTableRecord
  2
6
 70
     0
 62
     2
  6
CONTINUOUS
370
    -3
390
104A
  0
LAYER
  5
4C8
330
2
100
AcDbSymbolTableRecord
100
AcDbLayerTableRecord
  2
MSRI3_6-2
 70
     0
 62
     5
  6
CONTINUOUS
370
    -3
390
104A
  0
LAYER
  5
503
330
2
100
AcDbSymbolTableRecord
100
AcDbLayerTableRecord
  2
GEV_FROZEN
 70
     1
 62
     7
  6
CONTINUOUS
370
    -3
390
104A
  0
LAYER
  5
504
330
2
100
AcDbSymbolTableRecord
100
AcDbLayerTableRecord
  2
CENN
 70
     0
 62
     7
  6
CONTINUOUS
370
    -3
390
104A
  0
LAYER
  5
505
330
2
100
AcDbSymbolTableRecord
100
AcDbLayerTableRecord
  2
BHMM
 70
     0
 62
     7
  6
CONTINUOUS
370
    -3
390
104A
  0
LAYER
  5
506
330
2
100
AcDbSymbolTableRecord
100
AcDbLayerTableRecord
  2
THLI
 70
     0
 62
     7
  6
CONTINUOUS
370
    -3
390
104A
  0
LAYER
  5
512
330
2
100
AcDbSymbolTableRecord
100
AcDbLayerTableRecord
  2
MSRI3_6-7A
 70
     0
 62
     4
  6
GEN7A
370
    -3
390
104A
  0
LAYER
  5
56E
330
2
100
AcDbSymbolTableRecord
100
AcDbLayerTableRecord
  2
KLIN
 70
     1
 62
    -1
  6
CONTINUOUS
370
    -3
390
104A
  0
LAYER
  5
592
330
2
100
AcDbSymbolTableRecord
100
AcDbLayerTableRecord
  2
INFO
 70
     0
 62
     4
  6
CONTINUOUS
370
    -3
390
104A
  0
LAYER
  5
5C9
330
2
100
AcDbSymbolTableRecord
100
AcDbLayerTableRecord
  2
MSRI3_6-0N
 70
     0
 62
     7
  6
CONTINUOUS
370
    -3
390
104A
  0
ENDTAB
  0
TABLE
  2
STYLE
  5
3
330
0
100
AcDbSymbolTable
 70
     4
  0
STYLE
  5
10
330
3
100
AcDbSymbolTableRecord
100
AcDbTextStyleTableRecord
  2
STANDARD
 70
     0
 40
0.0
 41
1.0
 50
0.0
 71
     0
 42
3.5
  3
ISOCP.SHX
  4

  0
STYLE
  5
1124
330
3
100
AcDbSymbolTableRecord
100
AcDbTextStyleTableRecord
  2

 70
     1
 40
0.0
 41
1.0
 50
0.0
 71
     0
 42
3.5
  3
genltshp.shx
  4

  0
STYLE
  5
1134
330
3
100
AcDbSymbolTableRecord
100
AcDbTextStyleTableRecord
  2
ACANSTS
 70
     0
 40
1.0
 41
1.0
 50
0.0
 71
     0
 42
3.5
  3
romans.shx
  4

  0
STYLE
  5
1135
330
3
100
AcDbSymbolTableRecord
100
AcDbTextStyleTableRecord
  2
ACANSGDT
 70
     0
 40
0.0
 41
1.0
 50
0.0
 71
     0
 42
3.5
  3
amgdt.shx
  4

  0
ENDTAB
  0
TABLE
  2
VIEW
  5
6
330
0
100
AcDbSymbolTable
 70
     0
  0
ENDTAB
  0
TABLE
  2
UCS
  5
7
330
0
100
AcDbSymbolTable
 70
     0
  0
ENDTAB
  0
TABLE
  2
APPID
  5
9
330
0
100
AcDbSymbolTable
 70
    62
  0
APPID
  5
11
330
9
100
AcDbSymbolTableRecord
100
AcDbRegAppTableRecord
  2
ACAD
 70
     0
  0
APPID
  5
29
330
9
100
AcDbSymbolTableRecord
100
AcDbRegAppTableRecord
  2
GENIUS_GENCFG_13
 70
     0
1001
GENIUS_GENCFG0_13
1000
GEN@INFO_POS@XLATE
1001
GENIUS_GENCFG1_13
1000
GEN@LAYER@DEFS
1001
GENIUS_GENCFG2_13
1000
GEN@LAYER@ENTSORT
1001
GENIUS_GENCFG3_13
1000
GEN@OSWIZ
1001
GENIUS_GENCFG4_13
1000
GEN
1001
GENIUS_GEVCFG0_13
1000
GEV
1001
GENIUS_GEFCFG0_13
1000
GEF
  0
APPID
  5
2A
330
9
100
AcDbSymbolTableRecord
100
AcDbRegAppTableRecord
  2
GENIUS_GENCFG0_13
 70
     0
1001
GENIUS_GENCFG_13
1071
862825278
1000
2A
1000
GEN@INFO_POS@XLATE
1070
     7
1000
GenCfgObject
1000
GenCfgShort
1000
GenCfgReal
1000
GenCfgBool
1000
GenCfgString
1000
GenCfgDim
1000
GenCfgAttrInf
1000
INFOPOINTS
1070
     0
1002
{
1000
GENINF13
1070
     0
1002
{
1000
2GENINF
1070
     4
1000
2
1002
{
1002
}
1000
3GENINF
1070
     4
1000
3
1002
{
1002
}
1000
4GENINF
1070
     4
1000
4
1002
{
1002
}
1000
5GENINF
1070
     4
1000
5
1002
{
1002
}
1000
6GENINF
1070
     4
1000
6
1002
{
1002
}
1000
7GENINF
1070
     4
1000
7
1002
{
1002
}
1000
8GENINF
1070
     4
1000
8
1002
{
1002
}
1000
9GENINF
1070
     4
1000
9
1002
{
1002
}
1000
10GENINF
1070
     4
1000
10
1002
{
1002
}
1000
11GENINF
1070
     4
1000
11
1002
{
1002
}
1000
12GENINF
1070
     4
1000
12
1002
{
1002
}
1000
13GENINF
1070
     4
1000
13
1002
{
1002
}
1000
14GENINF
1070
     4
1000
14
1002
{
1002
}
1000
15GENINF
1070
     4
1000
15
1002
{
1002
}
1000
16GENINF
1070
     4
1000
16
1002
{
1002
}
1000
17GENINF
1070
     4
1000
17
1002
{
1002
}
1000
18GENINF
1070
     4
1000
18
1002
{
1002
}
1000
19GENINF
1070
     4
1000
19
1002
{
1002
}
1000
20GENINF
1070
     4
1000
20
1002
{
1002
}
1000
21GENINF
1070
     4
1000
21
1002
{
1002
}
1000
22GENINF
1070
     4
1000
22
1002
{
1002
}
1000
23GENINF
1070
     4
1000
23
1002
{
1002
}
1000
24GENINF
1070
     4
1000
24
1002
{
1002
}
1000
0GENINF
1070
     4
1000
0
1002
{
1002
}
1002
}
1000
GENINFO
1070
     0
1002
{
1000
3GENINF
1070
     4
1000
3
1002
{
1002
}
1000
4GENINF
1070
     4
1000
4
1002
{
1002
}
1000
5GENINF
1070
     4
1000
5
1002
{
1002
}
1000
6GENINF
1070
     4
1000
6
1002
{
1002
}
1000
7GENINF
1070
     4
1000
7
1002
{
1002
}
1000
8GENINF
1070
     4
1000
8
1002
{
1002
}
1000
9GENINF
1070
     4
1000
9
1002
{
1002
}
1000
10GENINF
1070
     4
1000
10
1002
{
1002
}
1000
11GENINF
1070
     4
1000
11
1002
{
1002
}
1000
12GENINF
1070
     4
1000
12
1002
{
1002
}
1000
13GENINF
1070
     4
1000
13
1002
{
1002
}
1000
14GENINF
1070
     4
1000
14
1002
{
1002
}
1000
15GENINF
1070
     4
1000
15
1002
{
1002
}
1000
16GENINF
1070
     4
1000
16
1002
{
1002
}
1000
17GENINF
1070
     4
1000
17
1002
{
1002
}
1000
18GENINF
1070
     4
1000
18
1002
{
1002
}
1000
19GENINF
1070
     4
1000
19
1002
{
1002
}
1000
20GENINF
1070
     4
1000
20
1002
{
1002
}
1000
21GENINF
1070
     4
1000
21
1002
{
1002
}
1000
22GENINF
1070
     4
1000
22
1002
{
1002
}
1002
}
1000
DININFO
1070
     0
1002
{
1000
ST-NAME1
1070
     4
1000
5
1002
{
1002
}
1000
ST-NAME2
1070
     4
1000
6
1002
{
1002
}
1000
ST-NORM1
1070
     4
1000
7
1002
{
1002
}
1000
ST-NORM2
1070
     4
1000
8
1002
{
1002
}
1000
ST-MAT1
1070
     4
1000
9
1002
{
1002
}
1000
ST-MAT2
1070
     4
1000
10
1002
{
1002
}
1002
}
1002
}
1000
POS_NUMBERS
1070
     0
1002
{
1000
GENPOS13
1070
     0
1002
{
1000
1GENPOS
1070
     4
1000
1
1002
{
1002
}
1000
2GENPOS
1070
     4
1000
2
1002
{
1002
}
1000
3GENPOS
1070
     4
1000
3
1002
{
1002
}
1000
4GENPOS
1070
     4
1000
4
1002
{
1002
}
1000
5GENPOS
1070
     4
1000
5
1002
{
1002
}
1000
6GENPOS
1070
     4
1000
6
1002
{
1002
}
1000
7GENPOS
1070
     4
1000
7
1002
{
1002
}
1000
8GENPOS
1070
     4
1000
8
1002
{
1002
}
1000
9GENPOS
1070
     4
1000
9
1002
{
1002
}
1000
10GENPOS
1070
     4
1000
10
1002
{
1002
}
1000
11GENPOS
1070
     4
1000
11
1002
{
1002
}
1000
12GENPOS
1070
     4
1000
12
1002
{
1002
}
1000
13GENPOS
1070
     4
1000
13
1002
{
1002
}
1000
14GENPOS
1070
     4
1000
14
1002
{
1002
}
1000
15GENPOS
1070
     4
1000
15
1002
{
1002
}
1000
16GENPOS
1070
     4
1000
16
1002
{
1002
}
1000
17GENPOS
1070
     4
1000
17
1002
{
1002
}
1000
18GENPOS
1070
     4
1000
18
1002
{
1002
}
1000
19GENPOS
1070
     4
1000
19
1002
{
1002
}
1000
20GENPOS
1070
     4
1000
20
1002
{
1002
}
1000
21GENPOS
1070
     4
1000
21
1002
{
1002
}
1000
22GENPOS
1070
     4
1000
22
1002
{
1002
}
1000
23GENPOS
1070
     4
1000
23
1002
{
1002
}
1000
24GENPOS
1070
     4
1000
24
1002
{
1002
}
1000
0GENPOS
1070
     4
1000
0
1002
{
1002
}
1002
}
1000
GENPOS
1070
     0
1002
{
1000
1GENPOS
1070
     4
1000
1
1002
{
1002
}
1000
2GENPOS
1070
     4
1000
2
1002
{
1002
}
1000
3GENPOS
1070
     4
1000
3
1002
{
1002
}
1000
4GENPOS
1070
     4
1000
4
1002
{
1002
}
1000
5GENPOS
1070
     4
1000
5
1002
{
1002
}
1000
6GENPOS
1070
     4
1000
6
1002
{
1002
}
1000
7GENPOS
1070
     4
1000
7
1002
{
1002
}
1000
8GENPOS
1070
     4
1000
8
1002
{
1002
}
1000
9GENPOS
1070
     4
1000
9
1002
{
1002
}
1000
10GENPOS
1070
     4
1000
10
1002
{
1002
}
1000
11GENPOS
1070
     4
1000
11
1002
{
1002
}
1000
12GENPOS
1070
     4
1000
12
1002
{
1002
}
1000
13GENPOS
1070
     4
1000
13
1002
{
1002
}
1000
14GENPOS
1070
     4
1000
14
1002
{
1002
}
1000
15GENPOS
1070
     4
1000
15
1002
{
1002
}
1000
16GENPOS
1070
     4
1000
16
1002
{
1002
}
1000
17GENPOS
1070
     4
1000
17
1002
{
1002
}
1000
18GENPOS
1070
     4
1000
18
1002
{
1002
}
1000
19GENPOS
1070
     4
1000
19
1002
{
1002
}
1000
20GENPOS
1070
     4
1000
20
1002
{
1002
}
1000
21GENPOS
1070
     4
1000
21
1002
{
1002
}
1000
22GENPOS
1070
     4
1000
22
1002
{
1002
}
1000
23GENPOS
1070
     4
1000
23
1002
{
1002
}
1002
}
1000
DIN985
1070
     0
1002
{
1000
POSITION
1070
     4
1000
1
1002
{
1002
}
1000
MENGE
1070
     4
1000
2
1002
{
1002
}
1000
BLATT
1070
     4
1000
3
1002
{
1002
}
1000
BENENN
1070
     4
1000
5
1002
{
1002
}
1000
BENENN2
1070
     4
1000
6
1002
{
1002
}
1000
NORM
1070
     4
1000
7
1002
{
1002
}
1000
NORM2
1070
     4
1000
8
1002
{
1002
}
1000
WERKSTOFF
1070
     4
1000
9
1002
{
1002
}
1000
WERKSTOFF2
1070
     4
1000
10
1002
{
1002
}
1002
}
1000
DIN986
1070
     0
1002
{
1000
POSITION
1070
     4
1000
1
1002
{
1002
}
1000
MENGE
1070
     4
1000
2
1002
{
1002
}
1000
BLATT
1070
     4
1000
3
1002
{
1002
}
1000
BENENN
1070
     4
1000
5
1002
{
1002
}
1000
BENENN2
1070
     4
1000
6
1002
{
1002
}
1000
NORM
1070
     4
1000
7
1002
{
1002
}
1000
NORM2
1070
     4
1000
8
1002
{
1002
}
1000
WERKSTOFF
1070
     4
1000
9
1002
{
1002
}
1000
WERKSTOFF2
1070
     4
1000
10
1002
{
1002
}
1002
}
1000
DIN987
1070
     0
1002
{
1000
POSITION
1070
     4
1000
1
1002
{
1002
}
1000
MENGE
1070
     4
1000
2
1002
{
1002
}
1000
BLATT
1070
     4
1000
3
1002
{
1002
}
1000
BENENN
1070
     4
1000
5
1002
{
1002
}
1000
BENENN2
1070
     4
1000
6
1002
{
1002
}
1000
NORM
1070
     4
1000
7
1002
{
1002
}
1000
NORM2
1070
     4
1000
8
1002
{
1002
}
1000
WERKSTOFF
1070
     4
1000
9
1002
{
1002
}
1000
WERKSTOFF2
1070
     4
1000
10
1002
{
1002
}
1002
}
1002
}
  0
APPID
  5
2B
330
9
100
AcDbSymbolTableRecord
100
AcDbRegAppTableRecord
  2
GENIUS_GENCFG1_13
 70
     0
1001
GENIUS_GENCFG_13
1071
862825278
1000
2B
1000
GEN@LAYER@DEFS
1070
     9
1000
GenCfgObject
1000
GenCfgShort
1000
GenCfgReal
1000
GenCfgBool
1000
GenCfgString
1000
GenCfgDim
1000
GenCfgAttrInf
1000
GenCfgLaySection
1000
GenCfgLayer
1000
Basic
1070
     0
1002
{
1000
0
1070
     8
1000
0
1002
{
1000
Color
1070
     1
1070
     7
1002
{
1002
}
1000
LType
1070
     4
1000
CONTINUOUS
1002
{
1002
}
1000
Base
1070
     3
1070
     0
1002
{
1002
}
1002
}
1000
1
1070
     8
1000
1
1002
{
1000
Color
1070
     1
1070
    14
1002
{
1002
}
1000
LType
1070
     4
1000
CONTINUOUS
1002
{
1002
}
1000
Base
1070
     3
1070
     0
1002
{
1002
}
1002
}
1000
2
1070
     8
1000
2
1002
{
1000
Color
1070
     1
1070
     5
1002
{
1002
}
1000
LType
1070
     4
1000
CONTINUOUS
1002
{
1002
}
1000
Base
1070
     3
1070
     0
1002
{
1002
}
1002
}
1000
3
1070
     8
1000
3
1002
{
1000
Color
1070
     1
1070
     6
1002
{
1002
}
1000
LType
1070
     4
1000
GEN3
1002
{
1002
}
1000
Base
1070
     3
1070
     0
1002
{
1002
}
1002
}
1000
4
1070
     8
1000
4
1002
{
1000
Color
1070
     1
1070
     3
1002
{
1002
}
1000
LType
1070
     4
1000
CONTINUOUS
1002
{
1002
}
1000
Base
1070
     3
1070
     0
1002
{
1002
}
1002
}
1000
5
1070
     8
1000
5
1002
{
1000
Color
1070
     1
1070
     3
1002
{
1002
}
1000
LType
1070
     4
1000
CONTINUOUS
1002
{
1002
}
1000
Base
1070
     3
1070
     0
1002
{
1002
}
1002
}
1000
6
1070
     8
1000
6
1002
{
1000
Color
1070
     1
1070
     2
1002
{
1002
}
1000
LType
1070
     4
1000
CONTINUOUS
1002
{
1002
}
1000
Base
1070
     3
1070
     0
1002
{
1002
}
1002
}
1000
7
1070
     8
1000
7
1002
{
1000
Color
1070
     1
1070
     4
1002
{
1002
}
1000
LType
1070
     4
1000
GEN7
1002
{
1002
}
1000
Base
1070
     3
1070
     0
1002
{
1002
}
1002
}
1000
8
1070
     8
1000
8
1002
{
1000
Color
1070
     1
1070
     1
1002
{
1002
}
1000
LType
1070
     4
1000
CONTINUOUS
1002
{
1002
}
1000
Base
1070
     3
1070
     0
1002
{
1002
}
1002
}
1000
3A
1070
     8
1000
3A
1002
{
1000
Color
1070
     1
1070
     6
1002
{
1002
}
1000
LType
1070
     4
1000
GEN3A
1002
{
1002
}
1000
Base
1070
     3
1070
     0
1002
{
1002
}
1002
}
1000
7A
1070
     8
1000
7A
1002
{
1000
Color
1070
     1
1070
     4
1002
{
1002
}
1000
LType
1070
     4
1000
GEN7A
1002
{
1002
}
1000
Base
1070
     3
1070
     0
1002
{
1002
}
1002
}
1000
2A
1070
     8
1000
2A
1002
{
1000
Color
1070
     1
1070
     7
1002
{
1002
}
1000
LType
1070
     4
1000
GEN7
1002
{
1002
}
1000
Base
1070
     3
1070
     0
1002
{
1002
}
1002
}
1000
4A
1070
     8
1000
4A
1002
{
1000
Color
1070
     1
1070
     3
1002
{
1002
}
1000
LType
1070
     4
1000
GEN4A
1002
{
1002
}
1000
Base
1070
     3
1070
     0
1002
{
1002
}
1002
}
1000
9
1070
     8
1000
9
1002
{
1000
Color
1070
     1
1070
   253
1002
{
1002
}
1000
LType
1070
     4
1000
CONTINUOUS
1002
{
1002
}
1000
Base
1070
     3
1070
     0
1002
{
1002
}
1002
}
1002
}
1000
Standard
1070
     0
1002
{
1000
0N
1070
     8
1000
0N
1002
{
1000
Color
1070
     1
1070
     7
1002
{
1002
}
1000
LType
1070
     4
1000
CONTINUOUS
1002
{
1002
}
1000
Base
1070
     3
1070
     0
1002
{
1002
}
1002
}
1000
1N
1070
     8
1000
1N
1002
{
1000
Color
1070
     1
1070
    14
1002
{
1002
}
1000
LType
1070
     4
1000
CONTINUOUS
1002
{
1002
}
1000
Base
1070
     3
1070
     0
1002
{
1002
}
1002
}
1000
2N
1070
     8
1000
2N
1002
{
1000
Color
1070
     1
1070
     5
1002
{
1002
}
1000
LType
1070
     4
1000
CONTINUOUS
1002
{
1002
}
1000
Base
1070
     3
1070
     0
1002
{
1002
}
1002
}
1000
3N
1070
     8
1000
3N
1002
{
1000
Color
1070
     1
1070
     6
1002
{
1002
}
1000
LType
1070
     4
1000
GEN3
1002
{
1002
}
1000
Base
1070
     3
1070
     0
1002
{
1002
}
1002
}
1000
4N
1070
     8
1000
4N
1002
{
1000
Color
1070
     1
1070
     3
1002
{
1002
}
1000
LType
1070
     4
1000
CONTINUOUS
1002
{
1002
}
1000
Base
1070
     3
1070
     0
1002
{
1002
}
1002
}
1000
5N
1070
     8
1000
5N
1002
{
1000
Color
1070
     1
1070
     3
1002
{
1002
}
1000
LType
1070
     4
1000
CONTINUOUS
1002
{
1002
}
1000
Base
1070
     3
1070
     0
1002
{
1002
}
1002
}
1000
6N
1070
     8
1000
6N
1002
{
1000
Color
1070
     1
1070
     2
1002
{
1002
}
1000
LType
1070
     4
1000
CONTINUOUS
1002
{
1002
}
1000
Base
1070
     3
1070
     0
1002
{
1002
}
1002
}
1000
7N
1070
     8
1000
7N
1002
{
1000
Color
1070
     1
1070
     4
1002
{
1002
}
1000
LType
1070
     4
1000
GEN7
1002
{
1002
}
1000
Base
1070
     3
1070
     0
1002
{
1002
}
1002
}
1000
8N
1070
     8
1000
8N
1002
{
1000
Color
1070
     1
1070
     1
1002
{
1002
}
1000
LType
1070
     4
1000
CONTINUOUS
1002
{
1002
}
1000
Base
1070
     3
1070
     0
1002
{
1002
}
1002
}
1000
3AN
1070
     8
1000
3AN
1002
{
1000
Color
1070
     1
1070
     6
1002
{
1002
}
1000
LType
1070
     4
1000
GEN3A
1002
{
1002
}
1000
Base
1070
     3
1070
     0
1002
{
1002
}
1002
}
1000
7AN
1070
     8
1000
7AN
1002
{
1000
Color
1070
     1
1070
     4
1002
{
1002
}
1000
LType
1070
     4
1000
GEN7A
1002
{
1002
}
1000
Base
1070
     3
1070
     0
1002
{
1002
}
1002
}
1000
2AN
1070
     8
1000
2AN
1002
{
1000
Color
1070
     1
1070
     7
1002
{
1002
}
1000
LType
1070
     4
1000
GEN7
1002
{
1002
}
1000
Base
1070
     3
1070
     0
1002
{
1002
}
1002
}
1000
4AN
1070
     8
1000
4AN
1002
{
1000
Color
1070
     1
1070
     3
1002
{
1002
}
1000
LType
1070
     4
1000
GEN4A
1002
{
1002
}
1000
Base
1070
     3
1070
     0
1002
{
1002
}
1002
}
1000
9N
1070
     8
1000
9N
1002
{
1000
Color
1070
     1
1070
   253
1002
{
1002
}
1000
LType
1070
     4
1000
CONTINUOUS
1002
{
1002
}
1000
Base
1070
     3
1070
     0
1002
{
1002
}
1002
}
1002
}
1000
Extra
1070
     0
1002
{
1000
Klin
1070
     8
1000
KLIN
1002
{
1000
Color
1070
     1
1070
     1
1002
{
1002
}
1000
LType
1070
     4
1000
CONTINUOUS
1002
{
1002
}
1000
Base
1070
     3
1070
     1
1002
{
1002
}
1002
}
1000
Info
1070
     8
1000
INFO
1002
{
1000
Color
1070
     1
1070
     4
1002
{
1002
}
1000
LType
1070
     4
1000
CONTINUOUS
1002
{
1002
}
1000
Base
1070
     3
1070
     1
1002
{
1002
}
1002
}
1000
Rahm2
1070
     8
1000
RAHM2
1002
{
1000
Color
1070
     1
1070
     1
1002
{
1002
}
1000
LType
1070
     4
1000
CONTINUOUS
1002
{
1002
}
1000
Base
1070
     3
1070
     1
1002
{
1002
}
1002
}
1000
Rahm3
1070
     8
1000
RAHM3
1002
{
1000
Color
1070
     1
1070
     2
1002
{
1002
}
1000
LType
1070
     4
1000
CONTINUOUS
1002
{
1002
}
1000
Base
1070
     3
1070
     1
1002
{
1002
}
1002
}
1000
Rahm5
1070
     8
1000
RAHM5
1002
{
1000
Color
1070
     1
1070
     7
1002
{
1002
}
1000
LType
1070
     4
1000
CONTINUOUS
1002
{
1002
}
1000
Base
1070
     3
1070
     1
1002
{
1002
}
1002
}
1000
View
1070
     8
1000
VIEW
1002
{
1000
Color
1070
     1
1070
     1
1002
{
1002
}
1000
LType
1070
     4
1000
CONTINUOUS
1002
{
1002
}
1000
Base
1070
     3
1070
     1
1002
{
1002
}
1002
}
1000
Behind
1070
     8
1000
BEHIND
1002
{
1000
Color
1070
     1
1070
   253
1002
{
1002
}
1000
LType
1070
     4
1000
CONTINUOUS
1002
{
1002
}
1000
Base
1070
     3
1070
     1
1002
{
1002
}
1002
}
1002
}
  0
APPID
  5
2C
330
9
100
AcDbSymbolTableRecord
100
AcDbRegAppTableRecord
  2
GENIUS_GENCFG2_13
 70
     0
1001
GENIUS_GENCFG_13
1071
862825278
1000
2C
1000
GEN@LAYER@ENTSORT
1070
    10
1000
GenCfgObject
1000
GenCfgShort
1000
GenCfgReal
1000
GenCfgBool
1000
GenCfgString
1000
GenCfgDim
1000
GenCfgAttrInf
1000
GenCfgLaySection
1000
GenCfgLayer
1000
GenCfgEntSort
1000
ALTR
1070
     9
1000
4
1002
{
1000
Class
1070
     4
1000

1002
{
1002
}
1000
Color
1070
     1
1070
     7
1002
{
1002
}
1000
LType
1070
     4
1000
GEN3A
1002
{
1002
}
1002
}
1000
BELI
1070
     9
1000
4
1002
{
1000
Class
1070
     4
1000

1002
{
1002
}
1000
Color
1070
     1
1070
   256
1002
{
1002
}
1000
LType
1070
     4
1000
BYLAYER
1002
{
1002
}
1002
}
1000
BHNV
1070
     9
1000
9
1002
{
1000
Class
1070
     4
1000
INV
1002
{
1002
}
1000
Color
1070
     1
1070
   256
1002
{
1002
}
1000
LType
1070
     4
1000
BYLAYER
1002
{
1002
}
1002
}
1000
BHNVS
1070
     9
1000
BEHIND
1002
{
1000
Class
1070
     4
1000
INV
1002
{
1002
}
1000
Color
1070
     1
1070
   256
1002
{
1002
}
1000
LType
1070
     4
1000
BYLAYER
1002
{
1002
}
1002
}
1000
BLID
1070
     9
1000
4A
1002
{
1000
Class
1070
     4
1000

1002
{
1002
}
1000
Color
1070
     1
1070
   256
1002
{
1002
}
1000
LType
1070
     4
1000
BYLAYER
1002
{
1002
}
1002
}
1000
BOAP
1070
     9
1000
4A
1002
{
1000
Class
1070
     4
1000

1002
{
1002
}
1000
Color
1070
     1
1070
   256
1002
{
1002
}
1000
LType
1070
     4
1000
BYLAYER
1002
{
1002
}
1002
}
1000
BOR2
1070
     9
1000
RAHM2
1002
{
1000
Class
1070
     4
1000
SPZ,SYM
1002
{
1002
}
1000
Color
1070
     1
1070
   256
1002
{
1002
}
1000
LType
1070
     4
1000
BYLAYER
1002
{
1002
}
1002
}
1000
BOR3
1070
     9
1000
RAHM3
1002
{
1000
Class
1070
     4
1000
SPZ,SYM
1002
{
1002
}
1000
Color
1070
     1
1070
   256
1002
{
1002
}
1000
LType
1070
     4
1000
BYLAYER
1002
{
1002
}
1002
}
1000
BOR5
1070
     9
1000
RAHM5
1002
{
1000
Class
1070
     4
1000
SPZ,SYM
1002
{
1002
}
1000
Color
1070
     1
1070
   256
1002
{
1002
}
1000
LType
1070
     4
1000
BYLAYER
1002
{
1002
}
1002
}
1000
BOR7
1070
     9
1000
RAHM5
1002
{
1000
Class
1070
     4
1000
SPZ,SYM
1002
{
1002
}
1000
Color
1070
     1
1070
     7
1002
{
1002
}
1000
LType
1070
     4
1000
CONTINUOUS
1002
{
1002
}
1002
}
1000
BPAP
1070
     9
1000
4A
1002
{
1000
Class
1070
     4
1000

1002
{
1002
}
1000
Color
1070
     1
1070
   256
1002
{
1002
}
1000
LType
1070
     4
1000
BYLAYER
1002
{
1002
}
1002
}
1000
BPEX
1070
     9
1000
4A
1002
{
1000
Class
1070
     4
1000

1002
{
1002
}
1000
Color
1070
     1
1070
   256
1002
{
1002
}
1000
LType
1070
     4
1000
BYLAYER
1002
{
1002
}
1002
}
1000
BTDI
1070
     9
1000
5
1002
{
1000
Class
1070
     4
1000
DIM,SYM
1002
{
1002
}
1000
Color
1070
     1
1070
   256
1002
{
1002
}
1000
LType
1070
     4
1000
BYLAYER
1002
{
1002
}
1002
}
1000
CAL2
1070
     9
1000
4
1002
{
1000
Class
1070
     4
1000
SYM
1002
{
1002
}
1000
Color
1070
     1
1070
   256
1002
{
1002
}
1000
LType
1070
     4
1000
BYLAYER
1002
{
1002
}
1002
}
1000
CAL3
1070
     9
1000
4
1002
{
1000
Class
1070
     4
1000
SYM
1002
{
1002
}
1000
Color
1070
     1
1070
     2
1002
{
1002
}
1000
LType
1070
     4
1000
BYLAYER
1002
{
1002
}
1002
}
1000
CAL5
1070
     9
1000
4
1002
{
1000
Class
1070
     4
1000
SYM
1002
{
1002
}
1000
Color
1070
     1
1070
     7
1002
{
1002
}
1000
LType
1070
     4
1000
BYLAYER
1002
{
1002
}
1002
}
1000
CAL7
1070
     9
1000
4
1002
{
1000
Class
1070
     4
1000
SYM
1002
{
1002
}
1000
Color
1070
     1
1070
     5
1002
{
1002
}
1000
LType
1070
     4
1000
BYLAYER
1002
{
1002
}
1002
}
1000
CENN
1070
     9
1000
7A
1002
{
1000
Class
1070
     4
1000
CEN
1002
{
1002
}
1000
Color
1070
     1
1070
   256
1002
{
1002
}
1000
LType
1070
     4
1000
BYLAYER
1002
{
1002
}
1002
}
1000
CENW
1070
     9
1000
7
1002
{
1000
Class
1070
     4
1000
CEN
1002
{
1002
}
1000
Color
1070
     1
1070
   256
1002
{
1002
}
1000
LType
1070
     4
1000
BYLAYER
1002
{
1002
}
1002
}
1000
CLIN
1070
     9
1000
KLIN
1002
{
1000
Class
1070
     4
1000
SPZ
1002
{
1002
}
1000
Color
1070
     1
1070
   256
1002
{
1002
}
1000
LType
1070
     4
1000
BYLAYER
1002
{
1002
}
1002
}
1000
CON1
1070
     9
1000
0
1002
{
1000
Class
1070
     4
1000
CON,BGD
1002
{
1002
}
1000
Color
1070
     1
1070
   256
1002
{
1002
}
1000
LType
1070
     4
1000
BYLAYER
1002
{
1002
}
1002
}
1000
CON2
1070
     9
1000
1
1002
{
1000
Class
1070
     4
1000
CON,BGD
1002
{
1002
}
1000
Color
1070
     1
1070
   256
1002
{
1002
}
1000
LType
1070
     4
1000
BYLAYER
1002
{
1002
}
1002
}
1000
CON3
1070
     9
1000
2
1002
{
1000
Class
1070
     4
1000
CON,BGD
1002
{
1002
}
1000
Color
1070
     1
1070
   256
1002
{
1002
}
1000
LType
1070
     4
1000
BYLAYER
1002
{
1002
}
1002
}
1000
CON4
1070
     9
1000
2
1002
{
1000
Class
1070
     4
1000
CON,BGD
1002
{
1002
}
1000
Color
1070
     1
1070
   256
1002
{
1002
}
1000
LType
1070
     4
1000
BYLAYER
1002
{
1002
}
1002
}
1000
DERP
1070
     9
1000
4
1002
{
1000
Class
1070
     4
1000

1002
{
1002
}
1000
Color
1070
     1
1070
   256
1002
{
1002
}
1000
LType
1070
     4
1000
BYLAYER
1002
{
1002
}
1002
}
1000
DETA
1070
     9
1000
4
1002
{
1000
Class
1070
     4
1000

1002
{
1002
}
1000
Color
1070
     1
1070
   256
1002
{
1002
}
1000
LType
1070
     4
1000
BYLAYER
1002
{
1002
}
1002
}
1000
DIAG
1070
     9
1000
5
1002
{
1000
Class
1070
     4
1000
SYM
1002
{
1002
}
1000
Color
1070
     1
1070
   256
1002
{
1002
}
1000
LType
1070
     4
1000
BYLAYER
1002
{
1002
}
1002
}
1000
DILI
1070
     9
1000
5
1002
{
1000
Class
1070
     4
1000
DIM,SYM
1002
{
1002
}
1000
Color
1070
     1
1070
   256
1002
{
1002
}
1000
LType
1070
     4
1000
BYLAYER
1002
{
1002
}
1002
}
1000
DITX
1070
     9
1000
5
1002
{
1000
Class
1070
     4
1000
DIM,SYM
1002
{
1002
}
1000
Color
1070
     1
1070
     2
1002
{
1002
}
1000
LType
1070
     4
1000
CONTINUOUS
1002
{
1002
}
1002
}
1000
DITO2
1070
     9
1000
5
1002
{
1000
Class
1070
     4
1000
DIM,SYM
1002
{
1002
}
1000
Color
1070
     1
1070
     3
1002
{
1002
}
1000
LType
1070
     4
1000
BYLAYER
1002
{
1002
}
1002
}
1000
DITO3
1070
     9
1000
5
1002
{
1000
Class
1070
     4
1000
DIM,SYM
1002
{
1002
}
1000
Color
1070
     1
1070
     2
1002
{
1002
}
1000
LType
1070
     4
1000
BYLAYER
1002
{
1002
}
1002
}
1000
DIXL
1070
     9
1000
5
1002
{
1000
Class
1070
     4
1000
DIM,SYM
1002
{
1002
}
1000
Color
1070
     1
1070
   256
1002
{
1002
}
1000
LType
1070
     4
1000
BYLAYER
1002
{
1002
}
1002
}
1000
EXMP
1070
     9
1000
4A
1002
{
1000
Class
1070
     4
1000

1002
{
1002
}
1000
Color
1070
     1
1070
   256
1002
{
1002
}
1000
LType
1070
     4
1000
BYLAYER
1002
{
1002
}
1002
}
1000
FEMN
1070
     9
1000
8
1002
{
1000
Class
1070
     4
1000

1002
{
1002
}
1000
Color
1070
     1
1070
   256
1002
{
1002
}
1000
LType
1070
     4
1000
BYLAYER
1002
{
1002
}
1002
}
1000
FEMPN
1070
     9
1000
8
1002
{
1000
Class
1070
     4
1000
SYM
1002
{
1002
}
1000
Color
1070
     1
1070
     3
1002
{
1002
}
1000
LType
1070
     4
1000
BYLAYER
1002
{
1002
}
1002
}
1000
FEMSP
1070
     9
1000
4A
1002
{
1000
Class
1070
     4
1000

1002
{
1002
}
1000
Color
1070
     1
1070
   256
1002
{
1002
}
1000
LType
1070
     4
1000
CONTINUOUS
1002
{
1002
}
1002
}
1000
FEMST
1070
     9
1000
4A
1002
{
1000
Class
1070
     4
1000
SYM
1002
{
1002
}
1000
Color
1070
     1
1070
     3
1002
{
1002
}
1000
LType
1070
     4
1000
BYLAYER
1002
{
1002
}
1002
}
1000
FEMVN
1070
     9
1000
2
1002
{
1000
Class
1070
     4
1000
CON
1002
{
1002
}
1000
Color
1070
     1
1070
   256
1002
{
1002
}
1000
LType
1070
     4
1000
BYLAYER
1002
{
1002
}
1002
}
1000
FEMVT
1070
     9
1000
2
1002
{
1000
Class
1070
     4
1000
SYM
1002
{
1002
}
1000
Color
1070
     1
1070
     3
1002
{
1002
}
1000
LType
1070
     4
1000
BYLAYER
1002
{
1002
}
1002
}
1000
FLAT
1070
     9
1000
0
1002
{
1000
Class
1070
     4
1000

1002
{
1002
}
1000
Color
1070
     1
1070
   256
1002
{
1002
}
1000
LType
1070
     4
1000
BYLAYER
1002
{
1002
}
1002
}
1000
FRAR
1070
     9
1000
4A
1002
{
1000
Class
1070
     4
1000

1002
{
1002
}
1000
Color
1070
     1
1070
   256
1002
{
1002
}
1000
LType
1070
     4
1000
BYLAYER
1002
{
1002
}
1002
}
1000
GRLI
1070
     9
1000
5
1002
{
1000
Class
1070
     4
1000
SYM
1002
{
1002
}
1000
Color
1070
     1
1070
   256
1002
{
1002
}
1000
LType
1070
     4
1000
BYLAYER
1002
{
1002
}
1002
}
1000
GVLI
1070
     9
1000
4A
1002
{
1000
Class
1070
     4
1000

1002
{
1002
}
1000
Color
1070
     1
1070
   256
1002
{
1002
}
1000
LType
1070
     4
1000
BYLAYER
1002
{
1002
}
1002
}
1000
HATC
1070
     9
1000
8
1002
{
1000
Class
1070
     4
1000
HTC,BGD
1002
{
1002
}
1000
Color
1070
     1
1070
   256
1002
{
1002
}
1000
LType
1070
     4
1000
BYLAYER
1002
{
1002
}
1002
}
1000
HIDN
1070
     9
1000
3A
1002
{
1000
Class
1070
     4
1000
HID,BGD
1002
{
1002
}
1000
Color
1070
     1
1070
   256
1002
{
1002
}
1000
LType
1070
     4
1000
BYLAYER
1002
{
1002
}
1002
}
1000
HIDW
1070
     9
1000
3
1002
{
1000
Class
1070
     4
1000
HID,BGD
1002
{
1002
}
1000
Color
1070
     1
1070
   256
1002
{
1002
}
1000
LType
1070
     4
1000
BYLAYER
1002
{
1002
}
1002
}
1000
HLIN
1070
     9
1000
4
1002
{
1000
Class
1070
     4
1000
BGD
1002
{
1002
}
1000
Color
1070
     1
1070
   256
1002
{
1002
}
1000
LType
1070
     4
1000
BYLAYER
1002
{
1002
}
1002
}
1000
HOCN
1070
     9
1000
7A
1002
{
1000
Class
1070
     4
1000
CEN
1002
{
1002
}
1000
Color
1070
     1
1070
   256
1002
{
1002
}
1000
LType
1070
     4
1000
BYLAYER
1002
{
1002
}
1002
}
1000
HOCW
1070
     9
1000
7
1002
{
1000
Class
1070
     4
1000
CEN
1002
{
1002
}
1000
Color
1070
     1
1070
   256
1002
{
1002
}
1000
LType
1070
     4
1000
BYLAYER
1002
{
1002
}
1002
}
1000
INFO
1070
     9
1000
INFO
1002
{
1000
Class
1070
     4
1000
SPZ,SYM
1002
{
1002
}
1000
Color
1070
     1
1070
   256
1002
{
1002
}
1000
LType
1070
     4
1000
BYLAYER
1002
{
1002
}
1002
}
1000
LADI
1070
     9
1000
4
1002
{
1000
Class
1070
     4
1000
BGD
1002
{
1002
}
1000
Color
1070
     1
1070
   256
1002
{
1002
}
1000
LType
1070
     4
1000
BYLAYER
1002
{
1002
}
1002
}
1000
LEAD
1070
     9
1000
5
1002
{
1000
Class
1070
     4
1000
SYM
1002
{
1002
}
1000
Color
1070
     1
1070
   256
1002
{
1002
}
1000
LType
1070
     4
1000
BYLAYER
1002
{
1002
}
1002
}
1000
N_BHNV
1070
     9
1000
9N
1002
{
1000
Class
1070
     4
1000
INV
1002
{
1002
}
1000
Color
1070
     1
1070
   256
1002
{
1002
}
1000
LType
1070
     4
1000
BYLAYER
1002
{
1002
}
1002
}
1000
N_CON1
1070
     9
1000
0N
1002
{
1000
Class
1070
     4
1000
CON,BGD
1002
{
1002
}
1000
Color
1070
     1
1070
   256
1002
{
1002
}
1000
LType
1070
     4
1000
BYLAYER
1002
{
1002
}
1002
}
1000
N_CON2
1070
     9
1000
1N
1002
{
1000
Class
1070
     4
1000
CON,BGD
1002
{
1002
}
1000
Color
1070
     1
1070
   256
1002
{
1002
}
1000
LType
1070
     4
1000
BYLAYER
1002
{
1002
}
1002
}
1000
N_CON3
1070
     9
1000
2N
1002
{
1000
Class
1070
     4
1000
CON,BGD
1002
{
1002
}
1000
Color
1070
     1
1070
   256
1002
{
1002
}
1000
LType
1070
     4
1000
BYLAYER
1002
{
1002
}
1002
}
1000
N_CON4
1070
     9
1000
2N
1002
{
1000
Class
1070
     4
1000
CON,BGD
1002
{
1002
}
1000
Color
1070
     1
1070
   256
1002
{
1002
}
1000
LType
1070
     4
1000
BYLAYER
1002
{
1002
}
1002
}
1000
N_CENN
1070
     9
1000
7AN
1002
{
1000
Class
1070
     4
1000
CEN
1002
{
1002
}
1000
Color
1070
     1
1070
   256
1002
{
1002
}
1000
LType
1070
     4
1000
BYLAYER
1002
{
1002
}
1002
}
1000
N_CENW
1070
     9
1000
7N
1002
{
1000
Class
1070
     4
1000
CEN
1002
{
1002
}
1000
Color
1070
     1
1070
   256
1002
{
1002
}
1000
LType
1070
     4
1000
BYLAYER
1002
{
1002
}
1002
}
1000
N_DILI
1070
     9
1000
5N
1002
{
1000
Class
1070
     4
1000
DIM,SYM
1002
{
1002
}
1000
Color
1070
     1
1070
   256
1002
{
1002
}
1000
LType
1070
     4
1000
BYLAYER
1002
{
1002
}
1002
}
1000
N_DITX
1070
     9
1000
5N
1002
{
1000
Class
1070
     4
1000
DIM,SYM
1002
{
1002
}
1000
Color
1070
     1
1070
     2
1002
{
1002
}
1000
LType
1070
     4
1000
CONTINUOUS
1002
{
1002
}
1002
}
1000
N_DIXL
1070
     9
1000
5N
1002
{
1000
Class
1070
     4
1000
DIM,SYM
1002
{
1002
}
1000
Color
1070
     1
1070
   256
1002
{
1002
}
1000
LType
1070
     4
1000
BYLAYER
1002
{
1002
}
1002
}
1000
N_HATC
1070
     9
1000
8N
1002
{
1000
Class
1070
     4
1000
HTC,BGD
1002
{
1002
}
1000
Color
1070
     1
1070
   256
1002
{
1002
}
1000
LType
1070
     4
1000
BYLAYER
1002
{
1002
}
1002
}
1000
N_HIDN
1070
     9
1000
3AN
1002
{
1000
Class
1070
     4
1000
HID,BGD
1002
{
1002
}
1000
Color
1070
     1
1070
   256
1002
{
1002
}
1000
LType
1070
     4
1000
BYLAYER
1002
{
1002
}
1002
}
1000
N_HIDW
1070
     9
1000
3N
1002
{
1000
Class
1070
     4
1000
HID,BGD
1002
{
1002
}
1000
Color
1070
     1
1070
   256
1002
{
1002
}
1000
LType
1070
     4
1000
BYLAYER
1002
{
1002
}
1002
}
1000
N_PHAN
1070
     9
1000
4AN
1002
{
1000
Class
1070
     4
1000

1002
{
1002
}
1000
Color
1070
     1
1070
   256
1002
{
1002
}
1000
LType
1070
     4
1000
BYLAYER
1002
{
1002
}
1002
}
1000
N_POSL
1070
     9
1000
5N
1002
{
1000
Class
1070
     4
1000
SYM
1002
{
1002
}
1000
Color
1070
     1
1070
   256
1002
{
1002
}
1000
LType
1070
     4
1000
BYLAYER
1002
{
1002
}
1002
}
1000
N_TCON
1070
     9
1000
0N
1002
{
1000
Class
1070
     4
1000
CON,BGD
1002
{
1002
}
1000
Color
1070
     1
1070
   256
1002
{
1002
}
1000
LType
1070
     4
1000
BYLAYER
1002
{
1002
}
1002
}
1000
N_THLI
1070
     9
1000
4N
1002
{
1000
Class
1070
     4
1000
BGD
1002
{
1002
}
1000
Color
1070
     1
1070
   256
1002
{
1002
}
1000
LType
1070
     4
1000
BYLAYER
1002
{
1002
}
1002
}
1000
N_TLEN
1070
     9
1000
0N
1002
{
1000
Class
1070
     4
1000
CON,BGD
1002
{
1002
}
1000
Color
1070
     1
1070
   256
1002
{
1002
}
1000
LType
1070
     4
1000
BYLAYER
1002
{
1002
}
1002
}
1000
N_TXT3
1070
     9
1000
6N
1002
{
1000
Class
1070
     4
1000
SYM
1002
{
1002
}
1000
Color
1070
     1
1070
   256
1002
{
1002
}
1000
LType
1070
     4
1000
BYLAYER
1002
{
1002
}
1002
}
1000
N_VPLI
1070
     9
1000
2AN
1002
{
1000
Class
1070
     4
1000

1002
{
1002
}
1000
Color
1070
     1
1070
   256
1002
{
1002
}
1000
LType
1070
     4
1000
BYLAYER
1002
{
1002
}
1002
}
1000
PAL2
1070
     9
1000
RAHM2
1002
{
1000
Class
1070
     4
1000
SPZ,SYM
1002
{
1002
}
1000
Color
1070
     1
1070
   256
1002
{
1002
}
1000
LType
1070
     4
1000
BYLAYER
1002
{
1002
}
1002
}
1000
PAL3
1070
     9
1000
RAHM3
1002
{
1000
Class
1070
     4
1000
SPZ,SYM
1002
{
1002
}
1000
Color
1070
     1
1070
   256
1002
{
1002
}
1000
LType
1070
     4
1000
BYLAYER
1002
{
1002
}
1002
}
1000
PAL5
1070
     9
1000
RAHM5
1002
{
1000
Class
1070
     4
1000
SPZ,SYM
1002
{
1002
}
1000
Color
1070
     1
1070
   256
1002
{
1002
}
1000
LType
1070
     4
1000
BYLAYER
1002
{
1002
}
1002
}
1000
PAL7
1070
     9
1000
RAHM5
1002
{
1000
Class
1070
     4
1000
SPZ,SYM
1002
{
1002
}
1000
Color
1070
     1
1070
     7
1002
{
1002
}
1000
LType
1070
     4
1000
CONTINUOUS
1002
{
1002
}
1002
}
1000
PHAN
1070
     9
1000
4A
1002
{
1000
Class
1070
     4
1000

1002
{
1002
}
1000
Color
1070
     1
1070
   256
1002
{
1002
}
1000
LType
1070
     4
1000
BYLAYER
1002
{
1002
}
1002
}
1000
POSL
1070
     9
1000
5
1002
{
1000
Class
1070
     4
1000
SYM
1002
{
1002
}
1000
Color
1070
     1
1070
   256
1002
{
1002
}
1000
LType
1070
     4
1000
BYLAYER
1002
{
1002
}
1002
}
1000
POSN
1070
     9
1000
6
1002
{
1000
Class
1070
     4
1000
SYM
1002
{
1002
}
1000
Color
1070
     1
1070
     7
1002
{
1002
}
1000
LType
1070
     4
1000
BYLAYER
1002
{
1002
}
1002
}
1000
POSREF
1070
     9
1000
6
1002
{
1000
Class
1070
     4
1000
SYM
1002
{
1002
}
1000
Color
1070
     1
1070
     5
1002
{
1002
}
1000
LType
1070
     4
1000
BYLAYER
1002
{
1002
}
1002
}
1000
POSX
1070
     9
1000
5
1002
{
1000
Class
1070
     4
1000
SYM
1002
{
1002
}
1000
Color
1070
     1
1070
     2
1002
{
1002
}
1000
LType
1070
     4
1000
CONTINUOUS
1002
{
1002
}
1002
}
1000
PSEC
1070
     9
1000
4A
1002
{
1000
Class
1070
     4
1000

1002
{
1002
}
1000
Color
1070
     1
1070
   256
1002
{
1002
}
1000
LType
1070
     4
1000
BYLAYER
1002
{
1002
}
1002
}
1000
RCGN
1070
     9
1000
7A
1002
{
1000
Class
1070
     4
1000
CEN
1002
{
1002
}
1000
Color
1070
     1
1070
   256
1002
{
1002
}
1000
LType
1070
     4
1000
BYLAYER
1002
{
1002
}
1002
}
1000
RCGW
1070
     9
1000
7
1002
{
1000
Class
1070
     4
1000
CEN
1002
{
1002
}
1000
Color
1070
     1
1070
   256
1002
{
1002
}
1000
LType
1070
     4
1000
BYLAYER
1002
{
1002
}
1002
}
1000
RFDI
1070
     9
1000
4
1002
{
1000
Class
1070
     4
1000
BGD
1002
{
1002
}
1000
Color
1070
     1
1070
   256
1002
{
1002
}
1000
LType
1070
     4
1000
BYLAYER
1002
{
1002
}
1002
}
1000
RQTR
1070
     9
1000
4
1002
{
1000
Class
1070
     4
1000

1002
{
1002
}
1000
Color
1070
     1
1070
     7
1002
{
1002
}
1000
LType
1070
     4
1000
GEN7A
1002
{
1002
}
1002
}
1000
RSBO
1070
     9
1000
4
1002
{
1000
Class
1070
     4
1000
BGD
1002
{
1002
}
1000
Color
1070
     1
1070
   256
1002
{
1002
}
1000
LType
1070
     4
1000
BYLAYER
1002
{
1002
}
1002
}
1000
SBRK
1070
     9
1000
4
1002
{
1000
Class
1070
     4
1000
BGD
1002
{
1002
}
1000
Color
1070
     1
1070
   256
1002
{
1002
}
1000
LType
1070
     4
1000
BYLAYER
1002
{
1002
}
1002
}
1000
SCEN
1070
     9
1000
7
1002
{
1000
Class
1070
     4
1000

1002
{
1002
}
1000
Color
1070
     1
1070
   256
1002
{
1002
}
1000
LType
1070
     4
1000
CONTINUOUS
1002
{
1002
}
1002
}
1000
SECT
1070
     9
1000
4
1002
{
1000
Class
1070
     4
1000
BGD
1002
{
1002
}
1000
Color
1070
     1
1070
   256
1002
{
1002
}
1000
LType
1070
     4
1000
BYLAYER
1002
{
1002
}
1002
}
1000
SELN
1070
     9
1000
7A
1002
{
1000
Class
1070
     4
1000

1002
{
1002
}
1000
Color
1070
     1
1070
   256
1002
{
1002
}
1000
LType
1070
     4
1000
BYLAYER
1002
{
1002
}
1002
}
1000
SELW
1070
     9
1000
7
1002
{
1000
Class
1070
     4
1000

1002
{
1002
}
1000
Color
1070
     1
1070
   256
1002
{
1002
}
1000
LType
1070
     4
1000
BYLAYER
1002
{
1002
}
1002
}
1000
SSYS
1070
     9
1000
0
1002
{
1000
Class
1070
     4
1000

1002
{
1002
}
1000
Color
1070
     1
1070
   256
1002
{
1002
}
1000
LType
1070
     4
1000
BYLAYER
1002
{
1002
}
1002
}
1000
STLI
1070
     9
1000
4
1002
{
1000
Class
1070
     4
1000

1002
{
1002
}
1000
Color
1070
     1
1070
     7
1002
{
1002
}
1000
LType
1070
     4
1000
GEN3A
1002
{
1002
}
1002
}
1000
SYB1
1070
     9
1000
5
1002
{
1000
Class
1070
     4
1000
SYM
1002
{
1002
}
1000
Color
1070
     1
1070
   256
1002
{
1002
}
1000
LType
1070
     4
1000
BYLAYER
1002
{
1002
}
1002
}
1000
SYB2
1070
     9
1000
5
1002
{
1000
Class
1070
     4
1000
SYM
1002
{
1002
}
1000
Color
1070
     1
1070
   256
1002
{
1002
}
1000
LType
1070
     4
1000
BYLAYER
1002
{
1002
}
1002
}
1000
SYB3
1070
     9
1000
6
1002
{
1000
Class
1070
     4
1000
SYM
1002
{
1002
}
1000
Color
1070
     1
1070
   256
1002
{
1002
}
1000
LType
1070
     4
1000
CONTINUOUS
1002
{
1002
}
1002
}
1000
SYB5
1070
     9
1000
5
1002
{
1000
Class
1070
     4
1000
SYM
1002
{
1002
}
1000
Color
1070
     1
1070
     7
1002
{
1002
}
1000
LType
1070
     4
1000
BYLAYER
1002
{
1002
}
1002
}
1000
SYMN
1070
     9
1000
7A
1002
{
1000
Class
1070
     4
1000
CEN
1002
{
1002
}
1000
Color
1070
     1
1070
   256
1002
{
1002
}
1000
LType
1070
     4
1000
BYLAYER
1002
{
1002
}
1002
}
1000
SYMW
1070
     9
1000
7
1002
{
1000
Class
1070
     4
1000
CEN
1002
{
1002
}
1000
Color
1070
     1
1070
   256
1002
{
1002
}
1000
LType
1070
     4
1000
BYLAYER
1002
{
1002
}
1002
}
1000
TCON
1070
     9
1000
0
1002
{
1000
Class
1070
     4
1000
CON,BGD
1002
{
1002
}
1000
Color
1070
     1
1070
   256
1002
{
1002
}
1000
LType
1070
     4
1000
BYLAYER
1002
{
1002
}
1002
}
1000
THLI
1070
     9
1000
4
1002
{
1000
Class
1070
     4
1000
BGD
1002
{
1002
}
1000
Color
1070
     1
1070
   256
1002
{
1002
}
1000
LType
1070
     4
1000
BYLAYER
1002
{
1002
}
1002
}
1000
TIT2
1070
     9
1000
RAHM2
1002
{
1000
Class
1070
     4
1000
SPZ,SYM
1002
{
1002
}
1000
Color
1070
     1
1070
   256
1002
{
1002
}
1000
LType
1070
     4
1000
BYLAYER
1002
{
1002
}
1002
}
1000
TIT3
1070
     9
1000
RAHM3
1002
{
1000
Class
1070
     4
1000
SPZ,SYM
1002
{
1002
}
1000
Color
1070
     1
1070
   256
1002
{
1002
}
1000
LType
1070
     4
1000
BYLAYER
1002
{
1002
}
1002
}
1000
TIT5
1070
     9
1000
RAHM5
1002
{
1000
Class
1070
     4
1000
SPZ,SYM
1002
{
1002
}
1000
Color
1070
     1
1070
   256
1002
{
1002
}
1000
LType
1070
     4
1000
BYLAYER
1002
{
1002
}
1002
}
1000
TIT7
1070
     9
1000
RAHM5
1002
{
1000
Class
1070
     4
1000
SPZ,SYM
1002
{
1002
}
1000
Color
1070
     1
1070
     7
1002
{
1002
}
1000
LType
1070
     4
1000
CONTINUOUS
1002
{
1002
}
1002
}
1000
TLEN
1070
     9
1000
0
1002
{
1000
Class
1070
     4
1000
CON,BGD
1002
{
1002
}
1000
Color
1070
     1
1070
   256
1002
{
1002
}
1000
LType
1070
     4
1000
BYLAYER
1002
{
1002
}
1002
}
1000
TRKN
1070
     9
1000
7A
1002
{
1000
Class
1070
     4
1000

1002
{
1002
}
1000
Color
1070
     1
1070
   256
1002
{
1002
}
1000
LType
1070
     4
1000
BYLAYER
1002
{
1002
}
1002
}
1000
TRKW
1070
     9
1000
7
1002
{
1000
Class
1070
     4
1000

1002
{
1002
}
1000
Color
1070
     1
1070
   256
1002
{
1002
}
1000
LType
1070
     4
1000
BYLAYER
1002
{
1002
}
1002
}
1000
TRLI
1070
     9
1000
4
1002
{
1000
Class
1070
     4
1000
BGD
1002
{
1002
}
1000
Color
1070
     1
1070
   256
1002
{
1002
}
1000
LType
1070
     4
1000
BYLAYER
1002
{
1002
}
1002
}
1000
TXT1
1070
     9
1000
6
1002
{
1000
Class
1070
     4
1000
SYM
1002
{
1002
}
1000
Color
1070
     1
1070
     2
1002
{
1002
}
1000
LType
1070
     4
1000
BYLAYER
1002
{
1002
}
1002
}
1000
TXT2
1070
     9
1000
6
1002
{
1000
Class
1070
     4
1000
SYM
1002
{
1002
}
1000
Color
1070
     1
1070
     2
1002
{
1002
}
1000
LType
1070
     4
1000
BYLAYER
1002
{
1002
}
1002
}
1000
TXT3
1070
     9
1000
6
1002
{
1000
Class
1070
     4
1000
SYM
1002
{
1002
}
1000
Color
1070
     1
1070
   256
1002
{
1002
}
1000
LType
1070
     4
1000
BYLAYER
1002
{
1002
}
1002
}
1000
TXT5
1070
     9
1000
6
1002
{
1000
Class
1070
     4
1000
SYM
1002
{
1002
}
1000
Color
1070
     1
1070
     7
1002
{
1002
}
1000
LType
1070
     4
1000
BYLAYER
1002
{
1002
}
1002
}
1000
TXT7
1070
     9
1000
6
1002
{
1000
Class
1070
     4
1000
SYM
1002
{
1002
}
1000
Color
1070
     1
1070
     7
1002
{
1002
}
1000
LType
1070
     4
1000
BYLAYER
1002
{
1002
}
1002
}
1000
VIEW
1070
     9
1000
VIEW
1002
{
1000
Class
1070
     4
1000
SPZ
1002
{
1002
}
1000
Color
1070
     1
1070
   256
1002
{
1002
}
1000
LType
1070
     4
1000
BYLAYER
1002
{
1002
}
1002
}
1000
VPLI
1070
     9
1000
2A
1002
{
1000
Class
1070
     4
1000

1002
{
1002
}
1000
Color
1070
     1
1070
   256
1002
{
1002
}
1000
LType
1070
     4
1000
BYLAYER
1002
{
1002
}
1002
}
1000
ZIZA
1070
     9
1000
4
1002
{
1000
Class
1070
     4
1000
BGD
1002
{
1002
}
1000
Color
1070
     1
1070
   256
1002
{
1002
}
1000
LType
1070
     4
1000
GENZIGZAG
1002
{
1002
}
1002
}
  0
APPID
  5
2D
330
9
100
AcDbSymbolTableRecord
100
AcDbRegAppTableRecord
  2
GENIUS_GENCFG3_13
 70
     0
1001
GENIUS_GENCFG_13
1071
862825278
1000
2D
1000
GEN@OSWIZ
1070
    12
1000
GenCfgObject
1000
GenCfgShort
1000
GenCfgReal
1000
GenCfgBool
1000
GenCfgString
1000
GenCfgDim
1000
GenCfgAttrInf
1000
GenCfgLaySection
1000
GenCfgLayer
1000
GenCfgEntSort
1000
GenCfgLType
1000
GenCfgFilter
1000
AngleStep
1070
     0
1002
{
1000
M
1070
     2
1040
10.0
1002
{
1002
}
1000
I
1070
     2
1040
0.4
1002
{
1002
}
1002
}
1000
AngleIncr
1070
     2
1040
45.0
1002
{
1002
}
1000
Filter
1070
     0
1002
{
1000
HATCH
1070
    11
1002
{
1000
EntityType
1070
     4
1000
LINE
1002
{
1002
}
1000
Layer
1070
     4
1000
8,8N,*-8,*-8N
1002
{
1002
}
1000
Linetype
1070
     4
1000
*
1002
{
1002
}
1000
Color
1070
     4
1000
*
1002
{
1002
}
1002
}
1000
SYMBOLS
1070
    11
1002
{
1000
EntityType
1070
     4
1000
*
1002
{
1002
}
1000
Layer
1070
     4
1000
[5-6],[5-6]N,*-[5-6],*-[5-6]N
1002
{
1002
}
1000
Linetype
1070
     4
1000
*
1002
{
1002
}
1000
Color
1070
     4
1000
*
1002
{
1002
}
1002
}
1000
FEM
1070
    11
1002
{
1000
EntityType
1070
     4
1000
*
1002
{
1002
}
1000
Layer
1070
     4
1000
4A,4AN,*-4A,*-4AN
1002
{
1002
}
1000
Linetype
1070
     4
1000
*
1002
{
1002
}
1000
Color
1070
     4
1000
*
1002
{
1002
}
1002
}
1002
}
1000
IconSize
1070
     2
1040
1.0
1002
{
1002
}
1000
SnapColor
1070
     1
1070
     3
1002
{
1002
}
  0
APPID
  5
2E
330
9
100
AcDbSymbolTableRecord
100
AcDbRegAppTableRecord
  2
GENIUS_GENCFG4_13
 70
     0
1001
GENIUS_GENCFG_13
1071
886405662
1000
2E
1000
GEN
1070
     9
1000
GenCfgObject
1000
GenCfgShort
1000
GenCfgReal
1000
GenCfgBool
1000
GenCfgString
1000
GenCfgDim
1000
GenCfgAttrInf
1000
GenCfgLaySection
1000
GenCfgLType
1000
Balloon
1070
     0
1002
{
1000
GenIF
1070
     1
1070
     0
1002
{
1002
}
1000
GenPosInc
1070
     1
1070
    10
1002
{
1002
}
1000
GenPosBlk
1070
     1
1070
     8
1002
{
1002
}
1000
GenPosVar
1070
     1
1070
     2
1002
{
1002
}
1000
GenZiCir
1070
     2
1040
1.5
1002
{
1002
}
1000
MaxCharForCenteredText
1070
     1
1070
    30
1002
{
1002
}
1000
Snap
1070
     0
1002
{
1000
ActivationRadius
1070
     2
1040
1.0
1002
{
1002
}
1000
M
1070
     0
1002
{
1000
SnapStepX
1070
     2
1040
20.0
1002
{
1002
}
1000
SnapStepY
1070
     2
1040
10.0
1002
{
1002
}
1002
}
1000
I
1070
     0
1002
{
1000
SnapStepX
1070
     2
1040
1.0
1002
{
1002
}
1000
SnapStepY
1070
     2
1040
0.5
1002
{
1002
}
1002
}
1002
}
1002
}
1000
Centerline
1070
     0
1002
{
1000
ScaleNot
1070
     3
1070
     1
1002
{
1002
}
1000
M
1070
     0
1002
{
1000
GenCenAng
1070
     4
1000
45|90|135
1002
{
1002
}
1000
GenCenDia
1070
     2
1040
10.0
1002
{
1002
}
1000
GenCenDias
1070
     4
1000
10|20|30
1002
{
1002
}
1000
GenCenDist
1070
     2
1040
3.0
1002
{
1002
}
1000
GenCenLen
1070
     2
1040
10.0
1002
{
1002
}
1000
GenCenOff
1070
     2
1040
10.0
1002
{
1002
}
1002
}
1000
I
1070
     0
1002
{
1000
GenCenAng
1070
     4
1000
45|90|135
1002
{
1002
}
1000
GenCenDia
1070
     2
1040
0.5
1002
{
1002
}
1000
GenCenDias
1070
     4
1000
0.5|1.0|1.5
1002
{
1002
}
1000
GenCenDist
1070
     2
1040
0.125
1002
{
1002
}
1000
GenCenLen
1070
     2
1040
0.5
1002
{
1002
}
1000
GenCenOff
1070
     2
1040
0.5
1002
{
1002
}
1002
}
1002
}
1000
CLine
1070
     0
1002
{
1000
CAngArray
1070
     4
1000
30|45|60
1002
{
1002
}
1000
Typ
1070
     4
1000
XLINE
1002
{
1002
}
1000
M
1070
     0
1002
{
1000
CLinArray
1070
     4
1000
60
1002
{
1002
}
1002
}
1000
I
1070
     0
1002
{
1000
CLinArray
1070
     4
1000
0.125|0.25|0.5
1002
{
1002
}
1002
}
1002
}
1000
Constraints
1070
     0
1002
{
1000
Color
1070
     0
1002
{
1000
Active_Frame
1070
     1
1070
     2
1002
{
1002
}
1000
Inactive_Frame
1070
     1
1070
     8
1002
{
1002
}
1002
}
1000
Debug
1070
     0
1002
{
1002
}
1000
Editor
1070
     0
1002
{
1002
}
1000
Frame
1070
     0
1002
{
1002
}
1000
Sys
1070
     0
1002
{
1002
}
1002
}
1000
Detail
1070
     0
1002
{
1002
}
1000
Dimension
1070
     5
1002
{
1000
DIMALT
1070
     1
1070
     0
1002
{
1002
}
1000
DIMALTD
1070
     1
1070
     2
1002
{
1002
}
1000
DIMALTTD
1070
     1
1070
     4
1002
{
1002
}
1000
DIMALTTZ
1070
     1
1070
     0
1002
{
1002
}
1000
DIMALTU
1070
     1
1070
     2
1002
{
1002
}
1000
DIMALTZ
1070
     1
1070
     0
1002
{
1002
}
1000
DIMAPOST
1070
     4
1000

1002
{
1002
}
1000
DIMAUNIT
1070
     1
1070
     0
1002
{
1002
}
1000
DIMBLK
1070
     4
1000

1002
{
1002
}
1000
DIMBLK1
1070
     4
1000

1002
{
1002
}
1000
DIMBLK2
1070
     4
1000

1002
{
1002
}
1000
DIMDLE
1070
     2
1040
0.0
1002
{
1002
}
1000
DIMFIT
1070
     1
1070
     3
1002
{
1002
}
1000
DIMJUST
1070
     1
1070
     0
1002
{
1002
}
1000
DIMLFAC
1070
     2
1040
1.0
1002
{
1002
}
1000
DIMLIM
1070
     1
1070
     0
1002
{
1002
}
1000
DIMPOST
1070
     4
1000
<>
1002
{
1002
}
1000
DIMRND
1070
     2
1040
0.0
1002
{
1002
}
1000
DIMSAH
1070
     1
1070
     0
1002
{
1002
}
1000
DIMSCALE
1070
     2
1040
1.0
1002
{
1002
}
1000
DIMSD1
1070
     1
1070
     0
1002
{
1002
}
1000
DIMSD2
1070
     1
1070
     0
1002
{
1002
}
1000
DIMSE1
1070
     1
1070
     0
1002
{
1002
}
1000
DIMSE2
1070
     1
1070
     0
1002
{
1002
}
1000
DIMSOXD
1070
     1
1070
     0
1002
{
1002
}
1000
DIMTAD
1070
     1
1070
     0
1002
{
1002
}
1000
DIMTFAC
1070
     2
1040
0.71
1002
{
1002
}
1000
DIMTIH
1070
     1
1070
     0
1002
{
1002
}
1000
DIMTIX
1070
     1
1070
     0
1002
{
1002
}
1000
DIMTM
1070
     2
1040
0.1
1002
{
1002
}
1000
DIMTOFL
1070
     1
1070
     0
1002
{
1002
}
1000
DIMTOH
1070
     1
1070
     0
1002
{
1002
}
1000
DIMTOL
1070
     1
1070
     0
1002
{
1002
}
1000
DIMTOLJ
1070
     1
1070
     1
1002
{
1002
}
1000
DIMTP
1070
     2
1040
0.1
1002
{
1002
}
1000
DIMTSZ
1070
     2
1040
0.0
1002
{
1002
}
1000
DIMTVP
1070
     2
1040
0.0
1002
{
1002
}
1000
DIMTXSTY
1070
     4
1000
STANDARD
1002
{
1002
}
1000
DIMTZIN
1070
     1
1070
     0
1002
{
1002
}
1000
DIMUNIT
1070
     1
1070
     2
1002
{
1002
}
1000
DIMUPT
1070
     1
1070
     0
1002
{
1002
}
1000
M
1070
     0
1002
{
1000
DIMALTF
1070
     2
1040
0.0393701
1002
{
1002
}
1000
DIMASZ
1070
     2
1040
2.5
1002
{
1002
}
1000
DIMCEN
1070
     2
1040
0.0
1002
{
1002
}
1000
DIMDEC
1070
     1
1070
     2
1002
{
1002
}
1000
DIMDLI
1070
     2
1040
7.0
1002
{
1002
}
1000
DIMEXE
1070
     2
1040
1.0
1002
{
1002
}
1000
DIMEXO
1070
     2
1040
1.0
1002
{
1002
}
1000
DIMGAP
1070
     2
1040
0.6
1002
{
1002
}
1000
DIMTDEC
1070
     1
1070
     3
1002
{
1002
}
1000
DIMTXT
1070
     2
1040
3.5
1002
{
1002
}
1000
DIMZIN
1070
     1
1070
     8
1002
{
1002
}
1002
}
1000
I
1070
     0
1002
{
1000
DIMALTF
1070
     2
1040
25.4
1002
{
1002
}
1000
DIMASZ
1070
     2
1040
0.1
1002
{
1002
}
1000
DIMCEN
1070
     2
1040
0.0
1002
{
1002
}
1000
DIMDEC
1070
     1
1070
     4
1002
{
1002
}
1000
DIMDLI
1070
     2
1040
0.5
1002
{
1002
}
1000
DIMEXE
1070
     2
1040
0.1
1002
{
1002
}
1000
DIMEXO
1070
     2
1040
0.05
1002
{
1002
}
1000
DIMGAP
1070
     2
1040
0.06
1002
{
1002
}
1000
DIMTDEC
1070
     1
1070
     4
1002
{
1002
}
1000
DIMTXT
1070
     2
1040
0.12
1002
{
1002
}
1000
DIMZIN
1070
     1
1070
     7
1002
{
1002
}
1002
}
1000
GEN-ISO
1070
     5
1002
{
1000
NAME
1070
     4
1000
GEN-ISO
1002
{
1002
}
1000
DIMTAD
1070
     1
1070
     1
1002
{
1002
}
1000
DIMTOLJ
1070
     1
1070
     0
1002
{
1002
}
1000
DIMTOFL
1070
     1
1070
     1
1002
{
1002
}
1000
M
1070
     0
1002
{
1002
}
1000
I
1070
     0
1002
{
1002
}
1002
}
1000
GEN-ISO-POS
1070
     5
1002
{
1000
NAME
1070
     4
1000
GEN-ISO-POS
1002
{
1002
}
1000
DIMTOLJ
1070
     1
1070
     0
1002
{
1002
}
1000
M
1070
     0
1002
{
1000
DIMASZ
1070
     2
1040
2.5
1002
{
1002
}
1000
DIMGAP
1070
     2
1040
1.5
1002
{
1002
}
1000
DIMTXT
1070
     2
1040
5.0
1002
{
1002
}
1002
}
1000
I
1070
     0
1002
{
1000
DIMASZ
1070
     2
1040
0.1
1002
{
1002
}
1000
DIMGAP
1070
     2
1040
0.06
1002
{
1002
}
1000
DIMTXT
1070
     2
1040
0.2
1002
{
1002
}
1002
}
1000
DIMSCALE
1070
     2
1040
1.0
1002
{
1002
}
1002
}
1000
GEN-ISO-CIR
1070
     5
1002
{
1000
NAME
1070
     4
1000
GEN-ISO$3
1002
{
1002
}
1000
DIMFIT
1070
     1
1070
     0
1002
{
1002
}
1000
DIMTAD
1070
     1
1070
     1
1002
{
1002
}
1000
DIMTIH
1070
     1
1070
     0
1002
{
1002
}
1000
DIMTIX
1070
     1
1070
     0
1002
{
1002
}
1000
DIMTOH
1070
     1
1070
     1
1002
{
1002
}
1000
DIMTOLJ
1070
     1
1070
     0
1002
{
1002
}
1000
DIMTOFL
1070
     1
1070
     0
1002
{
1002
}
1000
DIMUPT
1070
     1
1070
     1
1002
{
1002
}
1000
M
1070
     0
1002
{
1002
}
1000
I
1070
     0
1002
{
1002
}
1002
}
1000
GEN-ISO-RAD
1070
     5
1002
{
1000
NAME
1070
     4
1000
GEN-ISO$4
1002
{
1002
}
1000
DIMFIT
1070
     1
1070
     0
1002
{
1002
}
1000
DIMTAD
1070
     1
1070
     1
1002
{
1002
}
1000
DIMTIH
1070
     1
1070
     0
1002
{
1002
}
1000
DIMTIX
1070
     1
1070
     0
1002
{
1002
}
1000
DIMTOH
1070
     1
1070
     1
1002
{
1002
}
1000
DIMTOLJ
1070
     1
1070
     0
1002
{
1002
}
1000
DIMTOFL
1070
     1
1070
     0
1002
{
1002
}
1000
DIMUPT
1070
     1
1070
     1
1002
{
1002
}
1000
M
1070
     0
1002
{
1002
}
1000
I
1070
     0
1002
{
1002
}
1002
}
1000
GEN-ISO-ORD
1070
     5
1002
{
1000
NAME
1070
     4
1000
GEN-ISO$6
1002
{
1002
}
1000
DIMTOLJ
1070
     1
1070
     0
1002
{
1002
}
1000
M
1070
     0
1002
{
1002
}
1000
I
1070
     0
1002
{
1002
}
1002
}
1000
GEN-ISO-AXE-F
1070
     5
1002
{
1000
NAME
1070
     4
1000
GEN-ISO-AXE-F
1002
{
1002
}
1000
DIMSE1
1070
     1
1070
     1
1002
{
1002
}
1000
DIMSE2
1070
     1
1070
     1
1002
{
1002
}
1000
DIMTAD
1070
     1
1070
     1
1002
{
1002
}
1000
DIMTOLJ
1070
     1
1070
     0
1002
{
1002
}
1000
DIMTOFL
1070
     1
1070
     1
1002
{
1002
}
1000
M
1070
     0
1002
{
1002
}
1000
I
1070
     0
1002
{
1002
}
1002
}
1000
GEN-ISO-AXE-H
1070
     5
1002
{
1000
DIMBLK1
1070
     4
1000
GENAXEH
1002
{
1002
}
1000
DIMLFAC
1070
     2
1040
2.0
1002
{
1002
}
1000
DIMSAH
1070
     1
1070
     1
1002
{
1002
}
1000
DIMSE1
1070
     1
1070
     1
1002
{
1002
}
1000
DIMSE2
1070
     1
1070
     1
1002
{
1002
}
1000
DIMTAD
1070
     1
1070
     1
1002
{
1002
}
1000
DIMTOLJ
1070
     1
1070
     0
1002
{
1002
}
1000
DIMTOFL
1070
     1
1070
     1
1002
{
1002
}
1000
M
1070
     0
1002
{
1002
}
1000
I
1070
     0
1002
{
1002
}
1002
}
1000
GEN-ANSI
1070
     5
1002
{
1000
NAME
1070
     4
1000
GEN-ANSI
1002
{
1002
}
1000
DIMTIH
1070
     1
1070
     1
1002
{
1002
}
1000
DIMTOH
1070
     1
1070
     1
1002
{
1002
}
1000
DIMTAD
1070
     1
1070
     0
1002
{
1002
}
1000
DIMTOLJ
1070
     1
1070
     1
1002
{
1002
}
1000
M
1070
     0
1002
{
1002
}
1000
I
1070
     0
1002
{
1002
}
1002
}
1000
GEN-ANSI-POS
1070
     5
1002
{
1000
NAME
1070
     4
1000
GEN-ANSI-POS
1002
{
1002
}
1000
DIMTOLJ
1070
     1
1070
     1
1002
{
1002
}
1000
M
1070
     0
1002
{
1000
DIMASZ
1070
     2
1040
2.5
1002
{
1002
}
1000
DIMGAP
1070
     2
1040
1.5
1002
{
1002
}
1000
DIMTXT
1070
     2
1040
5.0
1002
{
1002
}
1002
}
1000
I
1070
     0
1002
{
1000
DIMASZ
1070
     2
1040
0.1
1002
{
1002
}
1000
DIMGAP
1070
     2
1040
0.06
1002
{
1002
}
1000
DIMTXT
1070
     2
1040
0.2
1002
{
1002
}
1002
}
1002
}
1000
GEN-ANSI-CIR
1070
     5
1002
{
1000
NAME
1070
     4
1000
GEN-ANSI$3
1002
{
1002
}
1000
DIMFIT
1070
     1
1070
     0
1002
{
1002
}
1000
DIMTAD
1070
     1
1070
     0
1002
{
1002
}
1000
DIMTIH
1070
     1
1070
     1
1002
{
1002
}
1000
DIMTIX
1070
     1
1070
     0
1002
{
1002
}
1000
DIMTOFL
1070
     1
1070
     0
1002
{
1002
}
1000
DIMTOH
1070
     1
1070
     1
1002
{
1002
}
1000
DIMTOLJ
1070
     1
1070
     1
1002
{
1002
}
1000
DIMUPT
1070
     1
1070
     1
1002
{
1002
}
1000
M
1070
     0
1002
{
1002
}
1000
I
1070
     0
1002
{
1002
}
1002
}
1000
GEN-ANSI-RAD
1070
     5
1002
{
1000
NAME
1070
     4
1000
GEN-ANSI$4
1002
{
1002
}
1000
DIMFIT
1070
     1
1070
     0
1002
{
1002
}
1000
DIMTAD
1070
     1
1070
     0
1002
{
1002
}
1000
DIMTIH
1070
     1
1070
     1
1002
{
1002
}
1000
DIMTIX
1070
     1
1070
     0
1002
{
1002
}
1000
DIMTOFL
1070
     1
1070
     0
1002
{
1002
}
1000
DIMTOH
1070
     1
1070
     1
1002
{
1002
}
1000
DIMTOLJ
1070
     1
1070
     1
1002
{
1002
}
1000
DIMUPT
1070
     1
1070
     1
1002
{
1002
}
1000
M
1070
     0
1002
{
1002
}
1000
I
1070
     0
1002
{
1002
}
1002
}
1000
GEN-ANSI-ORD
1070
     5
1002
{
1000
NAME
1070
     4
1000
GEN-ANSI$6
1002
{
1002
}
1000
DIMTAD
1070
     1
1070
     0
1002
{
1002
}
1000
DIMTIH
1070
     1
1070
     1
1002
{
1002
}
1000
DIMTOH
1070
     1
1070
     1
1002
{
1002
}
1000
DIMTOLJ
1070
     1
1070
     1
1002
{
1002
}
1000
M
1070
     0
1002
{
1002
}
1000
I
1070
     0
1002
{
1002
}
1002
}
1000
GEN-ANSI-AXE-F
1070
     5
1002
{
1000
NAME
1070
     4
1000
GEN-ANSI-AXE-F
1002
{
1002
}
1000
DIMBLK1
1070
     4
1000
GENAXEH
1002
{
1002
}
1000
DIMSAH
1070
     1
1070
     1
1002
{
1002
}
1000
DIMSE1
1070
     1
1070
     1
1002
{
1002
}
1000
DIMSE2
1070
     1
1070
     1
1002
{
1002
}
1000
DIMTAD
1070
     1
1070
     0
1002
{
1002
}
1000
DIMTIH
1070
     1
1070
     1
1002
{
1002
}
1000
DIMTOH
1070
     1
1070
     1
1002
{
1002
}
1000
DIMTOLJ
1070
     1
1070
     1
1002
{
1002
}
1000
M
1070
     0
1002
{
1002
}
1000
I
1070
     0
1002
{
1002
}
1002
}
1000
GEN-ANSI-AXE-H
1070
     5
1002
{
1000
NAME
1070
     4
1000
GEN-ANSI-AXE-H
1002
{
1002
}
1000
DIMBLK1
1070
     4
1000
GENAXEH
1002
{
1002
}
1000
DIMLFAC
1070
     2
1040
2.0
1002
{
1002
}
1000
DIMSAH
1070
     1
1070
     1
1002
{
1002
}
1000
DIMSE1
1070
     1
1070
     1
1002
{
1002
}
1000
DIMSE2
1070
     1
1070
     1
1002
{
1002
}
1000
DIMTAD
1070
     1
1070
     0
1002
{
1002
}
1000
DIMTOFL
1070
     1
1070
     1
1002
{
1002
}
1000
DIMTOLJ
1070
     1
1070
     1
1002
{
1002
}
1000
M
1070
     0
1002
{
1002
}
1000
I
1070
     0
1002
{
1002
}
1002
}
1000
DIMZIN
1070
     1
1070
     8
1002
{
1002
}
1002
}
1000
DimSet
1070
     0
1002
{
1000
ChainSum
1070
     3
1070
     0
1002
{
1002
}
1000
DimDclTyp0
1070
     4
1000
dim23
1002
{
1002
}
1000
HorBra
1070
     3
1070
     0
1002
{
1002
}
1000
StrDia
1070
     4
1000
%%c<>
1002
{
1002
}
1000
StrRad
1070
     4
1000
R<>
1002
{
1002
}
1000
TextMinus
1070
     4
1000
<>
1002
{
1002
}
1000
TextPlus
1070
     4
1000
<>
1002
{
1002
}
1000
M
1070
     0
1002
{
1000
DimdliFirst
1070
     2
1040
10.0
1002
{
1002
}
1000
PointMakeDist
1070
     2
1040
10.0
1002
{
1002
}
1002
}
1000
I
1070
     0
1002
{
1000
DimdliFirst
1070
     2
1040
0.5
1002
{
1002
}
1000
PointMakeDist
1070
     2
1040
0.5
1002
{
1002
}
1002
}
1002
}
1000
Drawing
1070
     0
1002
{
1000
ChamferDimMode
1070
     1
1070
     2
1002
{
1002
}
1000
Gen_Fiso
1070
    -3
1040
1.0
1002
{
1002
}
1000
GenDimStil
1070
     4
1000
ISO
1002
{
1002
}
1000
GenDwgUScale
1070
     2
1040
1.0
1002
{
1002
}
1000
GenInch
1070
     4
1000
M
1002
{
1002
}
1000
GenPlotScale
1070
     4
1000
1:1
1002
{
1002
}
1000
Revisi
1070
     4
1000
0
1002
{
1002
}
1000
Version
1070
    -5
1000
13.1/May  9 1996
1002
{
1002
}
1000
Platform
1070
    -5
1000
WINNT
1002
{
1002
}
1002
}
1000
DwgVar
1070
     0
1002
{
1000
M
1070
     0
1002
{
1002
}
1000
I
1070
     0
1002
{
1002
}
1002
}
1000
Hatch
1070
     0
1002
{
1000
GenHtcFlag
1070
     3
1070
     0
1002
{
1002
}
1002
}
1000
Info_Pos
1070
     0
1002
{
1000
DescrText
1070
     4
1000
5,6,7,8
1002
{
1002
}
1000
Attrib
1070
     0
1002
{
1000
0
1070
     6
1002
{
1000
Prompt
1070
     4
1000
(genmsg gendwg 103)
1002
{
1002
}
1000
Value
1070
     4
1000

1002
{
1002
}
1000
EditFlag
1070
     1
1070
     0
1002
{
1002
}
1002
}
1000
1
1070
     6
1002
{
1000
Prompt
1070
     4
1000
(genmsg gendwg 31)
1002
{
1002
}
1000
Value
1070
     4
1000
1
1002
{
1002
}
1000
EditFlag
1070
     1
1070
     1
1002
{
1002
}
1002
}
1000
2
1070
     6
1002
{
1000
Prompt
1070
     4
1000
(genmsg gendwg 32)
1002
{
1002
}
1000
Value
1070
     4
1000
1
1002
{
1002
}
1000
EditFlag
1070
     1
1070
     1
1002
{
1002
}
1002
}
1000
3
1070
     6
1002
{
1000
Prompt
1070
     4
1000
(genmsg gendwg 33)
1002
{
1002
}
1000
Value
1070
     4
1000

1002
{
1002
}
1000
EditFlag
1070
     1
1070
     1
1002
{
1002
}
1002
}
1000
4
1070
     6
1002
{
1000
Prompt
1070
     4
1000
(genmsg gendwg 34)
1002
{
1002
}
1000
Value
1070
     4
1000

1002
{
1002
}
1000
EditFlag
1070
     1
1070
     1
1002
{
1002
}
1002
}
1000
5
1070
     6
1002
{
1000
Prompt
1070
     4
1000
(genmsg gendwg 35)
1002
{
1002
}
1000
Value
1070
     4
1000

1002
{
1002
}
1000
EditFlag
1070
     1
1070
     1
1002
{
1002
}
1002
}
1000
6
1070
     6
1002
{
1000
Prompt
1070
     4
1000
(genmsg gendwg 36)
1002
{
1002
}
1000
Value
1070
     4
1000

1002
{
1002
}
1000
EditFlag
1070
     1
1070
     1
1002
{
1002
}
1002
}
1000
7
1070
     6
1002
{
1000
Prompt
1070
     4
1000
(genmsg gendwg 37)
1002
{
1002
}
1000
Value
1070
     4
1000

1002
{
1002
}
1000
EditFlag
1070
     1
1070
     1
1002
{
1002
}
1002
}
1000
8
1070
     6
1002
{
1000
Prompt
1070
     4
1000
(genmsg gendwg 38)
1002
{
1002
}
1000
Value
1070
     4
1000

1002
{
1002
}
1000
EditFlag
1070
     1
1070
     1
1002
{
1002
}
1002
}
1000
9
1070
     6
1002
{
1000
Prompt
1070
     4
1000
(genmsg gendwg 39)
1002
{
1002
}
1000
Value
1070
     4
1000

1002
{
1002
}
1000
EditFlag
1070
     1
1070
     1
1002
{
1002
}
1002
}
1000
10
1070
     6
1002
{
1000
Prompt
1070
     4
1000
(genmsg gendwg 40)
1002
{
1002
}
1000
Value
1070
     4
1000

1002
{
1002
}
1000
EditFlag
1070
     1
1070
     1
1002
{
1002
}
1002
}
1000
11
1070
     6
1002
{
1000
Prompt
1070
     4
1000
(genmsg gendwg 41)
1002
{
1002
}
1000
Value
1070
     4
1000

1002
{
1002
}
1000
EditFlag
1070
     1
1070
     1
1002
{
1002
}
1002
}
1000
12
1070
     6
1002
{
1000
Prompt
1070
     4
1000
(genmsg gendwg 42)
1002
{
1002
}
1000
Value
1070
     4
1000

1002
{
1002
}
1000
EditFlag
1070
     1
1070
     1
1002
{
1002
}
1002
}
1000
13
1070
     6
1002
{
1000
Prompt
1070
     4
1000
(genmsg gendwg 43)
1002
{
1002
}
1000
Value
1070
     4
1000

1002
{
1002
}
1000
EditFlag
1070
     1
1070
     1
1002
{
1002
}
1002
}
1000
14
1070
     6
1002
{
1000
Prompt
1070
     4
1000
(genmsg gendwg 44)
1002
{
1002
}
1000
Value
1070
     4
1000

1002
{
1002
}
1000
EditFlag
1070
     1
1070
     1
1002
{
1002
}
1002
}
1000
15
1070
     6
1002
{
1000
Prompt
1070
     4
1000
(genmsg gendwg 45)
1002
{
1002
}
1000
Value
1070
     4
1000

1002
{
1002
}
1000
EditFlag
1070
     1
1070
     1
1002
{
1002
}
1002
}
1000
16
1070
     6
1002
{
1000
Prompt
1070
     4
1000
(genmsg gendwg 46)
1002
{
1002
}
1000
Value
1070
     4
1000

1002
{
1002
}
1000
EditFlag
1070
     1
1070
     1
1002
{
1002
}
1002
}
1000
17
1070
     6
1002
{
1000
Prompt
1070
     4
1000
(genmsg gendwg 47)
1002
{
1002
}
1000
Value
1070
     4
1000

1002
{
1002
}
1000
EditFlag
1070
     1
1070
     1
1002
{
1002
}
1002
}
1000
18
1070
     6
1002
{
1000
Prompt
1070
     4
1000
(genmsg gendwg 48)
1002
{
1002
}
1000
Value
1070
     4
1000

1002
{
1002
}
1000
EditFlag
1070
     1
1070
     1
1002
{
1002
}
1002
}
1000
19
1070
     6
1002
{
1000
Prompt
1070
     4
1000
(genmsg gendwg 99)
1002
{
1002
}
1000
Value
1070
     4
1000

1002
{
1002
}
1000
EditFlag
1070
     1
1070
     1
1002
{
1002
}
1002
}
1000
20
1070
     6
1002
{
1000
Prompt
1070
     4
1000
(genmsg gendwg 100)
1002
{
1002
}
1000
Value
1070
     4
1000

1002
{
1002
}
1000
EditFlag
1070
     1
1070
     1
1002
{
1002
}
1002
}
1000
21
1070
     6
1002
{
1000
Prompt
1070
     4
1000
(genmsg gendwg 101)
1002
{
1002
}
1000
Value
1070
     4
1000

1002
{
1002
}
1000
EditFlag
1070
     1
1070
     1
1002
{
1002
}
1002
}
1000
22
1070
     6
1002
{
1000
Prompt
1070
     4
1000
(genmsg gendwg 102)
1002
{
1002
}
1000
Value
1070
     4
1000

1002
{
1002
}
1000
EditFlag
1070
     1
1070
     1
1002
{
1002
}
1002
}
1000
23
1070
     6
1002
{
1000
Prompt
1070
     4
1000
(genmsg gendwg 30)
1002
{
1002
}
1000
Value
1070
     4
1000

1002
{
1002
}
1000
EditFlag
1070
     1
1070
     1
1002
{
1002
}
1002
}
1000
24
1070
     6
1002
{
1000
Prompt
1070
     4
1000
(genmsg gendwg 104)
1002
{
1002
}
1000
Value
1070
     4
1000

1002
{
1002
}
1000
EditFlag
1070
     1
1070
     1
1002
{
1002
}
1002
}
1002
}
1000
Xlate
1070
     0
1002
{
1000
>
1002
}
1002
}
1000
Layer
1070
     7
1002
{
1000
Defs
1070
     0
1002
{
1000
>
1002
}
1000
EntSort
1070
     0
1002
{
1000
>
1002
}
1000
Match
1070
     0
1002
{
1002
}
1000
Settings
1070
     0
1002
{
1000
FocGrNC
1070
     3
1070
     0
1002
{
1002
}
1000
FocGrLo
1070
     3
1070
     0
1002
{
1002
}
1000
FocLoNC
1070
     3
1070
     0
1002
{
1002
}
1000
FocusCol
1070
     1
1070
   253
1002
{
1002
}
1000
GenStdLG
1070
     4
1000

1002
{
1002
}
1000
LayMatch
1070
     3
1070
     0
1002
{
1002
}
1000
LgOff
1070
     3
1070
     0
1002
{
1002
}
1000
CurLG
1070
    -5
1000
MSRI3_6
1002
{
1002
}
1002
}
1002
}
1000
LType
1070
     0
1002
{
1000
GEN3
1070
     8
1000
genius.lin
1002
{
1002
}
1000
GEN7
1070
     8
1000
genius.lin
1002
{
1002
}
1000
GEN4A
1070
     8
1000
genius.lin
1002
{
1002
}
1000
GEN3A
1070
     8
1000
genius.lin
1002
{
1002
}
1000
GEN7A
1070
     8
1000
genius.lin
1002
{
1002
}
1000
GENZIGZAG
1070
     8
1000
genius.lin
1002
{
1002
}
1002
}
1000
Objecter
1070
     0
1002
{
1000
CreateGroups
1070
     3
1070
     0
1002
{
1002
}
1000
LaySwitch
1070
     3
1070
     1
1002
{
1002
}
1000
LastObj
1070
    -5
1000
1006
1002
{
1002
}
1002
}
1000
OSWiz
1070
     0
1002
{
1000
>
1002
}
1000
PaList
1070
     0
1002
{
1000
AutoUpdatePartList
1070
     3
1070
     0
1002
{
1002
}
1000
ReadInfoPoint
1070
     3
1070
     0
1002
{
1002
}
1000
ReadPosNr
1070
     3
1070
     1
1002
{
1002
}
1000
RevStr
1070
     4
1000
0
1002
{
1002
}
1000
rebuildpending
1070
    -4
1070
     1
1002
{
1002
}
1000
rebuildpendingtime
1070
    -5
1000
886404891
1002
{
1002
}
1002
}
1000
Paper
1070
     0
1002
{
1000
Layer
1070
    -5
1000
INFO,MSRI3_6-0N,KLIN,MSRI3_6-7A,MSRI3_6-7AN,MSRI3_6-2,6,4A
1002
{
1002
}
1002
}
1000
PartDB
1070
     0
1002
{
1000
GenDbOwner
1070
     4
1000

1002
{
1002
}
1002
}
1000
System
1070
     0
1002
{
1000
Menu
1070
     4
1000
GEV
1002
{
1002
}
1002
}
1000
Title
1070
     0
1002
{
1000
MakeView
1070
     1
1070
     2
1002
{
1002
}
1002
}
  0
APPID
  5
2F
330
9
100
AcDbSymbolTableRecord
100
AcDbRegAppTableRecord
  2
GENIUS_GEVCFG0_13
 70
     0
1001
GENIUS_GENCFG_13
1071
862825278
1000
2F
1000
GEV
1070
     1
1000
GenCfgObject
1000
System
1070
     0
1002
{
1002
}
1000
VED
1070
     0
1002
{
1002
}
  0
APPID
  5
33
330
9
100
AcDbSymbolTableRecord
100
AcDbRegAppTableRecord
  2
GENIUS_GEFCFG0_13
 70
     0
1001
GENIUS_GENCFG_13
1071
886403922
1000
33
1000
GEF
1070
     5
1000
GenCfgObject
1000
GenCfgString
1000
GenCfgReal
1000
GenCfgShort
1000
GenCfgBool
1000
System
1070
     0
1002
{
1002
}
1000
Prese
1070
     0
1002
{
1000
Funk
1070
     1
1000

1002
{
1002
}
1000
FunkDef
1070
     1
1000

1002
{
1002
}
1000
GefIso
1070
     1
1000
DIN
1002
{
1002
}
1002
}
1000
FEM
1070
     0
1002
{
1000
LayGroup
1070
     1
1000
FEM
1002
{
1002
}
1000
IncrCoef
1070
     2
1040
0.0
1002
{
1002
}
1002
}
1000
Shaft
1070
     0
1002
{
1000
Interrupt
1070
     3
1070
     0
1002
{
1002
}
1002
}
1000
PartDb
1070
     0
1002
{
1000
PartCreate
1070
     0
1002
{
1002
}
1002
}
1000
Symbol
1070
     0
1002
{
1000
WeldStyle
1070
     1
1000
ISO
1002
{
1002
}
1000
WeldSize
1070
     2
1040
1.0
1002
{
1002
}
1000
WeldFlag
1070
     4
1070
     1
1002
{
1002
}
1000
WeldOffset
1070
     4
1070
     1
1002
{
1002
}
1000
TolCType
1070
     1
1000
ISO
1002
{
1002
}
1000
TolCSize
1070
     2
1040
1.0
1002
{
1002
}
1000
STextureSize
1070
     2
1040
1.0
1002
{
1002
}
1000
SurfaceType
1070
     1
1000

1002
{
1002
}
1000
M
1070
     0
1002
{
1000
WeldWidth
1070
     2
1040
3.0
1002
{
1002
}
1002
}
1000
I
1070
     0
1002
{
1000
WeldWidth
1070
     2
1040
0.125
1002
{
1002
}
1002
}
1000
weldwidth
1070
     2
1040
5.0
1002
{
1002
}
1002
}
  0
APPID
  5
3C
330
9
100
AcDbSymbolTableRecord
100
AcDbRegAppTableRecord
  2
GENIUS_GENOENT_13
 70
     0
  0
APPID
  5
59
330
9
100
AcDbSymbolTableRecord
100
AcDbRegAppTableRecord
  2
GENIUS_GENODEF_13
 70
     0
  0
APPID
  5
5A
330
9
100
AcDbSymbolTableRecord
100
AcDbRegAppTableRecord
  2
GENIUS_GENOBJ-N-HTC_13
 70
     0
  0
APPID
  5
5B
330
9
100
AcDbSymbolTableRecord
100
AcDbRegAppTableRecord
  2
GENIUS_GENHATCH_13
 70
     0
  0
APPID
  5
4FF
330
9
100
AcDbSymbolTableRecord
100
AcDbRegAppTableRecord
  2
GEV_VCCNULL_SWITCH_OFF
 70
     0
  0
APPID
  5
500
330
9
100
AcDbSymbolTableRecord
100
AcDbRegAppTableRecord
  2
GEVID886402302
 70
     0
  0
APPID
  5
501
330
9
100
AcDbSymbolTableRecord
100
AcDbRegAppTableRecord
  2
GEVDC
 70
     0
  0
APPID
  5
502
330
9
100
AcDbSymbolTableRecord
100
AcDbRegAppTableRecord
  2
GEVRADREF
 70
     0
  0
APPID
  5
50E
330
9
100
AcDbSymbolTableRecord
100
AcDbRegAppTableRecord
  2
GEVPT
 70
     0
  0
APPID
  5
50F
330
9
100
AcDbSymbolTableRecord
100
AcDbRegAppTableRecord
  2
GEVIT
 70
     0
  0
APPID
  5
510
330
9
100
AcDbSymbolTableRecord
100
AcDbRegAppTableRecord
  2
VCC
 70
     0
  0
APPID
  5
511
330
9
100
AcDbSymbolTableRecord
100
AcDbRegAppTableRecord
  2
GENBH
 70
     0
  0
APPID
  5
51D
330
9
100
AcDbSymbolTableRecord
100
AcDbRegAppTableRecord
  2
GEVMK
 70
     0
  0
APPID
  5
51E
330
9
100
AcDbSymbolTableRecord
100
AcDbRegAppTableRecord
  2
GENIUS_GENBH_13
 70
     0
  0
APPID
  5
51F
330
9
100
AcDbSymbolTableRecord
100
AcDbRegAppTableRecord
  2
GENIUS_GENOBJ_13
 70
     0
  0
APPID
  5
520
330
9
100
AcDbSymbolTableRecord
100
AcDbRegAppTableRecord
  2
GENIUS_GENOLIS_13
 70
     0
  0
APPID
  5
521
330
9
100
AcDbSymbolTableRecord
100
AcDbRegAppTableRecord
  2
GENIUS_GENOREF_13
 70
     0
  0
APPID
  5
522
330
9
100
AcDbSymbolTableRecord
100
AcDbRegAppTableRecord
  2
GENIUS_GENOBJ-NBEHI-BHF_13
 70
     0
  0
APPID
  5
524
330
9
100
AcDbSymbolTableRecord
100
AcDbRegAppTableRecord
  2
GENIUS_GENOBJ-NBEHI-BHB_13
 70
     0
  0
APPID
  5
527
330
9
100
AcDbSymbolTableRecord
100
AcDbRegAppTableRecord
  2
GENIUS_GENOBJ-F-PART_13
 70
     0
  0
APPID
  5
528
330
9
100
AcDbSymbolTableRecord
100
AcDbRegAppTableRecord
  2
GENIUS_GEFSTDP_13
 70
     0
  0
APPID
  5
52A
330
9
100
AcDbSymbolTableRecord
100
AcDbRegAppTableRecord
  2
GENIUS_GEFPARTINS_13
 70
     0
  0
APPID
  5
52C
330
9
100
AcDbSymbolTableRecord
100
AcDbRegAppTableRecord
  2
GEVID886402303
 70
     0
  0
APPID
  5
541
330
9
100
AcDbSymbolTableRecord
100
AcDbRegAppTableRecord
  2
GEVID886402304
 70
     0
  0
APPID
  5
556
330
9
100
AcDbSymbolTableRecord
100
AcDbRegAppTableRecord
  2
GEVID886402305
 70
     0
  0
APPID
  5
5E5
330
9
100
AcDbSymbolTableRecord
100
AcDbRegAppTableRecord
  2
GENIUS_GENINF13_13
 70
     0
  0
APPID
  5
5E6
330
9
100
AcDbSymbolTableRecord
100
AcDbRegAppTableRecord
  2
GENIUS_GENOBJ-N-INFOPT_13
 70
     0
  0
APPID
  5
5E7
330
9
100
AcDbSymbolTableRecord
100
AcDbRegAppTableRecord
  2
GENIUS_GENOBJ-N-RSSYM_13
 70
     0
  0
APPID
  5
5E8
330
9
100
AcDbSymbolTableRecord
100
AcDbRegAppTableRecord
  2
GENIUS_GENSYMENT_13
 70
     0
  0
APPID
  5
5E9
330
9
100
AcDbSymbolTableRecord
100
AcDbRegAppTableRecord
  2
GENIUS_GENSCSYM_13
 70
     0
  0
APPID
  5
88A
330
9
100
AcDbSymbolTableRecord
100
AcDbRegAppTableRecord
  2
GENIUS_GENOBJ-N-RSBK_13
 70
     0
  0
APPID
  5
88B
330
9
100
AcDbSymbolTableRecord
100
AcDbRegAppTableRecord
  2
GENIUS_GENOBJ-N-LIB_13
 70
     0
  0
APPID
  5
88C
330
9
100
AcDbSymbolTableRecord
100
AcDbRegAppTableRecord
  2
GENIUS_GENSCALE_13
 70
     0
  0
APPID
  5
AE9
330
9
100
AcDbSymbolTableRecord
100
AcDbRegAppTableRecord
  2
GEVID886405263
 70
     0
  0
APPID
  5
AF9
330
9
100
AcDbSymbolTableRecord
100
AcDbRegAppTableRecord
  2
GEVID886405264
 70
     0
  0
APPID
  5
B09
330
9
100
AcDbSymbolTableRecord
100
AcDbRegAppTableRecord
  2
GEVID886405265
 70
     0
  0
APPID
  5
B19
330
9
100
AcDbSymbolTableRecord
100
AcDbRegAppTableRecord
  2
GEVID886405266
 70
     0
  0
APPID
  5
1016
330
9
100
AcDbSymbolTableRecord
100
AcDbRegAppTableRecord
  2
GEVID886405608
 70
     0
  0
APPID
  5
1026
330
9
100
AcDbSymbolTableRecord
100
AcDbRegAppTableRecord
  2
GEVID886405609
 70
     0
  0
APPID
  5
1036
330
9
100
AcDbSymbolTableRecord
100
AcDbRegAppTableRecord
  2
GEVID886405610
 70
     0
  0
APPID
  5
1046
330
9
100
AcDbSymbolTableRecord
100
AcDbRegAppTableRecord
  2
GEVID886405611
 70
     0
  0
APPID
  5
109C
330
9
100
AcDbSymbolTableRecord
100
AcDbRegAppTableRecord
  2
ACAD_MLEADERVER
 70
     0
  0
APPID
  5
10A9
330
9
100
AcDbSymbolTableRecord
100
AcDbRegAppTableRecord
  2
MCAD_NO_VIS
 70
     0
  0
APPID
  5
10AA
330
9
100
AcDbSymbolTableRecord
100
AcDbRegAppTableRecord
  2
ACAD_TEMP_GRAPHIC
 70
     0
  0
APPID
  5
10DA
330
9
100
AcDbSymbolTableRecord
100
AcDbRegAppTableRecord
  2
AD_DRAW
 70
     0
  0
APPID
  5
10DD
330
9
100
AcDbSymbolTableRecord
100
AcDbRegAppTableRecord
  2
ACATTRIBSERVICES
 70
     0
  0
APPID
  5
10FE
330
9
100
AcDbSymbolTableRecord
100
AcDbRegAppTableRecord
  2
DESIGNERASSEMBLIES
 70
     0
  0
APPID
  5
1104
330
9
100
AcDbSymbolTableRecord
100
AcDbRegAppTableRecord
  2
ACADM_DIM_EDIT
 70
     0
  0
APPID
  5
1105
330
9
100
AcDbSymbolTableRecord
100
AcDbRegAppTableRecord
  2
AMDT_DM_ADJ
 70
     0
  0
APPID
  5
1162
330
9
100
AcDbSymbolTableRecord
100
AcDbRegAppTableRecord
  2
ACAD_DSTYLE_DIMARC_LENGTH_SYMBOL
 70
     0
  0
APPID
  5
1163
330
9
100
AcDbSymbolTableRecord
100
AcDbRegAppTableRecord
  2
ACAD_DSTYLE_DIM_LINETYPE
 70
     0
  0
APPID
  5
1164
330
9
100
AcDbSymbolTableRecord
100
AcDbRegAppTableRecord
  2
ACAD_DSTYLE_DIM_EXT1_LINETYPE
 70
     0
  0
APPID
  5
1165
330
9
100
AcDbSymbolTableRecord
100
AcDbRegAppTableRecord
  2
ACAD_DSTYLE_DIM_EXT2_LINETYPE
 70
     0
  0
ENDTAB
  0
TABLE
  2
DIMSTYLE
  5
A
330
0
100
AcDbSymbolTable
 70
    14
100
AcDbDimStyleTable
 71
     0
  0
DIMSTYLE
105
1D
330
A
100
AcDbSymbolTableRecord
100
AcDbDimStyleTableRecord
  2
STANDARD
 70
     0
340
10
  0
DIMSTYLE
105
111B
102
{ACAD_REACTORS
330
110B
102
}
330
A
100
AcDbSymbolTableRecord
100
AcDbDimStyleTableRecord
  2
AM_ANSI
 70
     0
  4
"
 41
3.5
 42
1.0
 43
10.0
 44
1.0
 47
0.1
 48
0.1
 78
     8
 79
     2
140
3.5
141
0.0
143
0.0393701
146
0.71
147
1.5
176
   256
177
   256
178
     2
271
     2
272
     3
274
     4
284
     8
340
10
371
    -1
372
    -1
1001
ACAD_DSTYLE_DIMARC_LENGTH_SYMBOL
1070
   379
1070
     1
1001
ACAD_DSTYLE_DIM_LINETYPE
1070
   380
1005
14
1001
ACAD_DSTYLE_DIM_EXT1_LINETYPE
1070
   381
1005
14
1001
ACAD_DSTYLE_DIM_EXT2_LINETYPE
1070
   382
1005
14
  0
DIMSTYLE
105
1129
330
A
100
AcDbSymbolTableRecord
100
AcDbDimStyleTableRecord
  2
AM_ANSI$3
 70
     0
  4
"
 41
3.5
 42
1.0
 43
10.0
 44
1.0
 47
0.1
 48
0.1
 78
     8
 79
     2
140
3.5
141
0.0
143
0.0393701
146
0.71
147
1.5
176
   256
177
   256
178
     2
271
     2
272
     3
274
     4
284
     8
288
     1
289
     0
340
10
371
    -1
372
    -1
1001
ACAD_DSTYLE_DIMARC_LENGTH_SYMBOL
1070
   379
1070
     1
1001
ACAD_DSTYLE_DIM_LINETYPE
1070
   380
1005
14
1001
ACAD_DSTYLE_DIM_EXT1_LINETYPE
1070
   381
1005
14
1001
ACAD_DSTYLE_DIM_EXT2_LINETYPE
1070
   382
1005
14
  0
DIMSTYLE
105
112A
330
A
100
AcDbSymbolTableRecord
100
AcDbDimStyleTableRecord
  2
AM_ANSI$4
 70
     0
  4
"
 41
3.5
 42
1.0
 43
10.0
 44
1.0
 47
0.1
 48
0.1
 78
     8
 79
     2
140
3.5
141
0.0
143
0.0393701
146
0.71
147
1.5
176
   256
177
   256
178
     2
271
     2
272
     3
274
     4
284
     8
288
     1
289
     0
340
10
371
    -1
372
    -1
1001
ACAD_DSTYLE_DIMARC_LENGTH_SYMBOL
1070
   379
1070
     1
1001
ACAD_DSTYLE_DIM_LINETYPE
1070
   380
1005
14
1001
ACAD_DSTYLE_DIM_EXT1_LINETYPE
1070
   381
1005
14
1001
ACAD_DSTYLE_DIM_EXT2_LINETYPE
1070
   382
1005
14
  0
DIMSTYLE
105
112B
330
A
100
AcDbSymbolTableRecord
100
AcDbDimStyleTableRecord
  2
AM_ANSI$7
 70
     0
  4
"
 41
3.5
 42
1.0
 43
10.0
 44
1.0
 47
0.1
 48
0.1
 78
     8
 79
     2
140
3.5
141
0.0
143
0.0393701
146
0.71
147
1.5
176
   256
177
   256
178
     2
271
     2
272
     3
274
     4
284
     8
340
10
371
    -1
372
    -1
1001
ACAD_DSTYLE_DIMARC_LENGTH_SYMBOL
1070
   379
1070
     1
1001
ACAD_DSTYLE_DIM_LINETYPE
1070
   380
1005
14
1001
ACAD_DSTYLE_DIM_EXT1_LINETYPE
1070
   381
1005
14
1001
ACAD_DSTYLE_DIM_EXT2_LINETYPE
1070
   382
1005
14
  0
DIMSTYLE
105
112C
330
A
100
AcDbSymbolTableRecord
100
AcDbDimStyleTableRecord
  2
AM_ANSI$SF
 70
     0
  4
"
 41
3.5
 42
1.0
 43
10.0
 44
1.0
 47
0.1
 48
0.1
 75
     1
 76
     1
 78
     8
 79
     2
140
3.5
141
0.0
143
0.0393701
146
0.71
147
1.5
176
   256
177
   256
178
     2
271
     2
272
     3
274
     4
284
     8
340
10
371
    -1
372
    -1
1001
ACAD_DSTYLE_DIMARC_LENGTH_SYMBOL
1070
   379
1070
     1
1001
ACAD_DSTYLE_DIM_LINETYPE
1070
   380
1005
14
1001
ACAD_DSTYLE_DIM_EXT1_LINETYPE
1070
   381
1005
14
1001
ACAD_DSTYLE_DIM_EXT2_LINETYPE
1070
   382
1005
14
  0
DIMSTYLE
105
1131
330
A
100
AcDbSymbolTableRecord
100
AcDbDimStyleTableRecord
  2
AM_ANSI$SH
 70
     0
  4
"
 41
3.5
 42
1.0
 43
10.0
 44
1.0
 47
0.1
 48
0.1
 75
     1
 76
     1
 78
     8
 79
     2
140
3.5
141
0.0
143
0.0393701
146
0.71
147
1.5
173
     1
176
   256
177
   256
178
     2
271
     2
272
     3
274
     4
284
     8
340
10
343
112D
371
    -1
372
    -1
1001
ACAD_DSTYLE_DIMARC_LENGTH_SYMBOL
1070
   379
1070
     1
1001
ACAD_DSTYLE_DIM_LINETYPE
1070
   380
1005
14
1001
ACAD_DSTYLE_DIM_EXT1_LINETYPE
1070
   381
1005
14
1001
ACAD_DSTYLE_DIM_EXT2_LINETYPE
1070
   382
1005
14
  0
DIMSTYLE
105
113E
330
A
100
AcDbSymbolTableRecord
100
AcDbDimStyleTableRecord
  2
GEN-ANSI
 70
     0
  3
<>
 41
2.5
 42
1.0
 43
7.0
 44
1.0
 47
0.1
 48
0.1
 78
     8
140
3.5
141
0.0
143
0.0393701
146
0.71
147
0.6
271
     2
272
     3
274
     4
340
10
  0
DIMSTYLE
105
113F
330
A
100
AcDbSymbolTableRecord
100
AcDbDimStyleTableRecord
  2
GEN-ANSI$3
 70
     0
  3
<>
 41
2.5
 42
1.0
 43
7.0
 44
1.0
 47
0.1
 48
0.1
 78
     8
140
3.5
141
0.0
143
0.0393701
146
0.71
147
0.6
271
     2
272
     3
274
     4
288
     1
289
     0
340
10
  0
DIMSTYLE
105
1140
330
A
100
AcDbSymbolTableRecord
100
AcDbDimStyleTableRecord
  2
GEN-ANSI$4
 70
     0
  3
<>
 41
2.5
 42
1.0
 43
7.0
 44
1.0
 47
0.1
 48
0.1
 78
     8
140
3.5
141
0.0
143
0.0393701
146
0.71
147
0.6
271
     2
272
     3
274
     4
288
     1
289
     0
340
10
  0
DIMSTYLE
105
1141
330
A
100
AcDbSymbolTableRecord
100
AcDbDimStyleTableRecord
  2
GEN-ANSI$6
 70
     0
  3
<>
 41
2.5
 42
1.0
 43
7.0
 44
1.0
 47
0.1
 48
0.1
 78
     8
140
3.5
141
0.0
143
0.0393701
146
0.71
147
0.6
271
     2
272
     3
274
     4
340
10
  0
DIMSTYLE
105
1142
330
A
100
AcDbSymbolTableRecord
100
AcDbDimStyleTableRecord
  2
GEN-ANSI-POS
 70
     0
  3
<>
 41
2.5
 42
1.0
 43
7.0
 44
1.0
 47
0.1
 48
0.1
 73
     0
 74
     0
 78
     8
140
5.0
141
0.0
143
0.0393701
146
0.71
147
1.5
271
     2
272
     3
274
     4
340
10
  0
DIMSTYLE
105
1143
330
A
100
AcDbSymbolTableRecord
100
AcDbDimStyleTableRecord
  2
GEN-ANSI-AXE-F
 70
     0
  3
<>
 41
2.5
 42
1.0
 43
7.0
 44
1.0
 47
0.1
 48
0.1
 75
     1
 76
     1
 78
     8
140
3.5
141
0.0
143
0.0393701
146
0.71
147
0.6
173
     1
271
     2
272
     3
274
     4
340
10
343
112D
  0
DIMSTYLE
105
1144
330
A
100
AcDbSymbolTableRecord
100
AcDbDimStyleTableRecord
  2
GEN-ANSI-AXE-H
 70
     0
  3
<>
 41
2.5
 42
1.0
 43
7.0
 44
1.0
 47
0.1
 48
0.1
 73
     0
 74
     0
 75
     1
 76
     1
 78
     8
140
3.5
141
0.0
143
0.0393701
144
2.0
146
0.71
147
0.6
172
     1
173
     1
271
     2
272
     3
274
     4
340
10
343
112D
  0
ENDTAB
  0
TABLE
  2
BLOCK_RECORD
  5
1
330
0
100
AcDbSymbolTable
 70
    13
  0
BLOCK_RECORD
  5
1A
330
1
100
AcDbSymbolTableRecord
100
AcDbBlockTableRecord
  2
*MODEL_SPACE
340
109F
  0
BLOCK_RECORD
  5
17
330
1
100
AcDbSymbolTableRecord
100
AcDbBlockTableRecord
  2
*PAPER_SPACE
340
10A0
  0
BLOCK_RECORD
  5
593
330
1
100
AcDbSymbolTableRecord
100
AcDbBlockTableRecord
  2
GENINF13
340
0
102
{BLKREFS
331
EAD
102
}
  0
BLOCK_RECORD
  5
B1D
330
1
100
AcDbSymbolTableRecord
100
AcDbBlockTableRecord
  2
*X1
340
0
102
{BLKREFS
331
E8F
102
}
  0
BLOCK_RECORD
  5
B26
330
1
100
AcDbSymbolTableRecord
100
AcDbBlockTableRecord
  2
*X2
340
0
102
{BLKREFS
331
F3C
102
}
  0
BLOCK_RECORD
  5
1007
330
1
100
AcDbSymbolTableRecord
100
AcDbBlockTableRecord
  2
*U3
340
0
102
{BLKREFS
331
1010
102
}
  0
BLOCK_RECORD
  5
100E
330
1
100
AcDbSymbolTableRecord
100
AcDbBlockTableRecord
  2
*U4
340
0
102
{BLKREFS
331
E2A
102
}
  0
BLOCK_RECORD
  5
1017
330
1
100
AcDbSymbolTableRecord
100
AcDbBlockTableRecord
  2
*U5
340
0
102
{BLKREFS
331
1020
102
}
  0
BLOCK_RECORD
  5
101E
330
1
100
AcDbSymbolTableRecord
100
AcDbBlockTableRecord
  2
*U6
340
0
102
{BLKREFS
331
DBC
102
}
  0
BLOCK_RECORD
  5
1027
330
1
100
AcDbSymbolTableRecord
100
AcDbBlockTableRecord
  2
*U7
340
0
102
{BLKREFS
331
1030
102
}
  0
BLOCK_RECORD
  5
102E
330
1
100
AcDbSymbolTableRecord
100
AcDbBlockTableRecord
  2
*U8
340
0
102
{BLKREFS
331
DBB
102
}
  0
BLOCK_RECORD
  5
1037
330
1
100
AcDbSymbolTableRecord
100
AcDbBlockTableRecord
  2
*U9
340
0
102
{BLKREFS
331
1040
102
}
  0
BLOCK_RECORD
  5
103E
330
1
100
AcDbSymbolTableRecord
100
AcDbBlockTableRecord
  2
*U10
340
0
102
{BLKREFS
331
E15
102
}
  0
BLOCK_RECORD
  5
112D
330
1
100
AcDbSymbolTableRecord
100
AcDbBlockTableRecord
  2
GENAXEH
340
0
  0
ENDTAB
  0
ENDSEC
  0
SECTION
  2
BLOCKS
  0
BLOCK
  5
1B
330
1A
100
AcDbEntity
  8
0
100
AcDbBlockBegin
  2
*MODEL_SPACE
 70
     0
 10
0.0
 20
0.0
 30
0.0
  3
*MODEL_SPACE
  1

  0
ENDBLK
  5
1C
330
1A
100
AcDbEntity
  8
0
100
AcDbBlockEnd
  0
BLOCK
  5
18
330
17
100
AcDbEntity
 67
     1
  8
0
100
AcDbBlockBegin
  2
*PAPER_SPACE
 70
     0
 10
0.0
 20
0.0
 30
0.0
  3
*PAPER_SPACE
  1

  0
ENDBLK
  5
19
330
17
100
AcDbEntity
 67
     1
  8
0
100
AcDbBlockEnd
  0
BLOCK
  5
5A3
330
593
100
AcDbEntity
  8
0
100
AcDbBlockBegin
  2
GENINF13
 70
     2
 10
0.0
 20
0.0
 30
0.0
  3
GENINF13
  1
GENINF13
  0
CIRCLE
  5
5A4
330
593
100
AcDbEntity
  8
INFO
100
AcDbCircle
 10
-0.1079460011883957
 20
1.312243585777231
 30
0.0
 40
0.3390668951753026
  0
CIRCLE
  5
5A5
330
593
100
AcDbEntity
  8
INFO
100
AcDbCircle
 10
0.0
 20
0.0
 30
0.0
 40
1.920194409963144
  0
LINE
  5
5A6
330
593
100
AcDbEntity
  8
INFO
100
AcDbLine
 10
0.4113437479737743
 20
0.7068303850037036
 30
0.0
 11
-0.7000060094186789
 21
0.7068303850037035
 31
0.0
  0
LINE
  5
5A7
330
593
100
AcDbEntity
  8
INFO
100
AcDbLine
 10
0.8299040409314978
 20
-1.341535205482386
 30
0.0
 11
0.8299040409314978
 21
-0.5553667224477728
 31
0.0
  0
LINE
  5
5A8
330
593
100
AcDbEntity
  8
INFO
100
AcDbLine
 10
0.8299040409314978
 20
-0.5553667224477728
 30
0.0
 11
0.4113437479737743
 21
-0.5553667224477728
 31
0.0
  0
LINE
  5
5A9
330
593
100
AcDbEntity
  8
INFO
100
AcDbLine
 10
0.4113437479737743
 20
-0.5553667224477728
 30
0.0
 11
0.4113437479737743
 21
0.7068303850037036
 31
0.0
  0
LINE
  5
5AA
330
593
100
AcDbEntity
  8
INFO
100
AcDbLine
 10
-0.7000060094186789
 20
0.7068303850037035
 30
0.0
 11
-0.7000060094186788
 21
0.1226134319150372
 31
0.0
  0
LINE
  5
5AB
330
593
100
AcDbEntity
  8
INFO
100
AcDbLine
 10
-0.7000060094186788
 20
0.1226134319150372
 30
0.0
 11
-0.3752609491200999
 21
0.1226134319150372
 31
0.0
  0
LINE
  5
5AC
330
593
100
AcDbEntity
  8
INFO
100
AcDbLine
 10
-0.3752609491200999
 20
0.1226134319150372
 30
0.0
 11
-0.3752609491200999
 21
-0.5553667224477728
 31
0.0
  0
LINE
  5
5AD
330
593
100
AcDbEntity
  8
INFO
100
AcDbLine
 10
-0.3752609491200999
 20
-0.5553667224477728
 30
0.0
 11
-0.8010378055452676
 21
-0.5553667224477728
 31
0.0
  0
LINE
  5
5AE
330
593
100
AcDbEntity
  8
INFO
100
AcDbLine
 10
-0.8010378055452676
 20
-0.5553667224477728
 30
0.0
 11
-0.8010378055452676
 21
-1.341535205482386
 31
0.0
  0
LINE
  5
5AF
330
593
100
AcDbEntity
  8
INFO
100
AcDbLine
 10
-0.8010378055452676
 20
-1.341535205482386
 30
0.0
 11
0.8299040409314978
 21
-1.341535205482386
 31
0.0
  0
ATTDEF
  5
5B0
330
593
100
AcDbEntity
  8
INFO
100
AcDbText
 10
0.0
 20
0.0
 30
0.0
 40
1.0
  1
1
100
AcDbAttributeDefinition
  3
Menge
  2
2GENINF
 70
     1
  0
ATTDEF
  5
5B1
330
593
100
AcDbEntity
  8
INFO
100
AcDbText
 10
0.0
 20
-1.5
 30
0.0
 40
1.0
  1

100
AcDbAttributeDefinition
  3
Stücklisten-Name
  2
3GENINF
 70
     1
  0
ATTDEF
  5
5B2
330
593
100
AcDbEntity
  8
INFO
100
AcDbText
 10
0.0
 20
-3.0
 30
0.0
 40
1.0
  1

100
AcDbAttributeDefinition
  3
Stücklisten-Pfad
  2
4GENINF
 70
     1
  0
ATTDEF
  5
5B3
330
593
100
AcDbEntity
  8
INFO
100
AcDbText
 10
0.0
 20
-4.5
 30
0.0
 40
1.0
  1

100
AcDbAttributeDefinition
  3
Beschreibung 1
  2
5GENINF
 70
     1
  0
ATTDEF
  5
5B4
330
593
100
AcDbEntity
  8
INFO
100
AcDbText
 10
0.0
 20
-6.0
 30
0.0
 40
1.0
  1

100
AcDbAttributeDefinition
  3
Beschreibung 2
  2
6GENINF
 70
     1
  0
ATTDEF
  5
5B5
330
593
100
AcDbEntity
  8
INFO
100
AcDbText
 10
0.0
 20
-7.5
 30
0.0
 40
1.0
  1

100
AcDbAttributeDefinition
  3
Norm/Lieferant 1
  2
7GENINF
 70
     1
  0
ATTDEF
  5
5B6
330
593
100
AcDbEntity
  8
INFO
100
AcDbText
 10
0.0
 20
-9.0
 30
0.0
 40
1.0
  1

100
AcDbAttributeDefinition
  3
Norm/Lieferant 2
  2
8GENINF
 70
     1
  0
ATTDEF
  5
5B7
330
593
100
AcDbEntity
  8
INFO
100
AcDbText
 10
0.0
 20
-10.5
 30
0.0
 40
1.0
  1

100
AcDbAttributeDefinition
  3
Material 1
  2
9GENINF
 70
     1
  0
ATTDEF
  5
5B8
330
593
100
AcDbEntity
  8
INFO
100
AcDbText
 10
0.0
 20
-12.0
 30
0.0
 40
1.0
  1

100
AcDbAttributeDefinition
  3
Material 2
  2
10GENINF
 70
     1
  0
ATTDEF
  5
5B9
330
593
100
AcDbEntity
  8
INFO
100
AcDbText
 10
0.0
 20
-13.5
 30
0.0
 40
1.0
  1

100
AcDbAttributeDefinition
  3
Identnummer
  2
11GENINF
 70
     1
  0
ATTDEF
  5
5BA
330
593
100
AcDbEntity
  8
INFO
100
AcDbText
 10
0.0
 20
-15.0
 30
0.0
 40
1.0
  1

100
AcDbAttributeDefinition
  3
Gewicht
  2
12GENINF
 70
     1
  0
ATTDEF
  5
5BB
330
593
100
AcDbEntity
  8
INFO
100
AcDbText
 10
0.0
 20
-16.5
 30
0.0
 40
1.0
  1

100
AcDbAttributeDefinition
  3
Preis
  2
13GENINF
 70
     1
  0
ATTDEF
  5
5BC
330
593
100
AcDbEntity
  8
INFO
100
AcDbText
 10
0.0
 20
-18.0
 30
0.0
 40
1.0
  1

100
AcDbAttributeDefinition
  3
Abmessungen
  2
14GENINF
 70
     1
  0
ATTDEF
  5
5BD
330
593
100
AcDbEntity
  8
INFO
100
AcDbText
 10
0.0
 20
-19.5
 30
0.0
 40
1.0
  1

100
AcDbAttributeDefinition
  3
User 1
  2
15GENINF
 70
     1
  0
ATTDEF
  5
5BE
330
593
100
AcDbEntity
  8
INFO
100
AcDbText
 10
0.0
 20
-21.0
 30
0.0
 40
1.0
  1

100
AcDbAttributeDefinition
  3
User 2
  2
16GENINF
 70
     1
  0
ATTDEF
  5
5BF
330
593
100
AcDbEntity
  8
INFO
100
AcDbText
 10
0.0
 20
-22.5
 30
0.0
 40
1.0
  1

100
AcDbAttributeDefinition
  3
User 3
  2
17GENINF
 70
     1
  0
ATTDEF
  5
5C0
330
593
100
AcDbEntity
  8
INFO
100
AcDbText
 10
0.0
 20
-24.0
 30
0.0
 40
1.0
  1

100
AcDbAttributeDefinition
  3
User 4
  2
18GENINF
 70
     1
  0
ATTDEF
  5
5C1
330
593
100
AcDbEntity
  8
INFO
100
AcDbText
 10
0.0
 20
-25.5
 30
0.0
 40
1.0
  1

100
AcDbAttributeDefinition
  3
User 5
  2
19GENINF
 70
     1
  0
ATTDEF
  5
5C2
330
593
100
AcDbEntity
  8
INFO
100
AcDbText
 10
0.0
 20
-27.0
 30
0.0
 40
1.0
  1

100
AcDbAttributeDefinition
  3
User 6
  2
20GENINF
 70
     1
  0
ATTDEF
  5
5C3
330
593
100
AcDbEntity
  8
INFO
100
AcDbText
 10
0.0
 20
-28.5
 30
0.0
 40
1.0
  1

100
AcDbAttributeDefinition
  3
User 7
  2
21GENINF
 70
     1
  0
ATTDEF
  5
5C4
330
593
100
AcDbEntity
  8
INFO
100
AcDbText
 10
0.0
 20
-30.0
 30
0.0
 40
1.0
  1

100
AcDbAttributeDefinition
  3
User 8
  2
22GENINF
 70
     1
  0
ATTDEF
  5
5C5
330
593
100
AcDbEntity
  8
INFO
100
AcDbText
 10
0.0
 20
-31.5
 30
0.0
 40
1.0
  1

100
AcDbAttributeDefinition
  3
Filter
  2
23GENINF
 70
     1
  0
ATTDEF
  5
5C6
330
593
100
AcDbEntity
  8
INFO
100
AcDbText
 10
0.0
 20
-33.0
 30
0.0
 40
1.0
  1

100
AcDbAttributeDefinition
  3
Bemerkung
  2
24GENINF
 70
     1
  0
ATTDEF
  5
5C7
330
593
100
AcDbEntity
  8
INFO
100
AcDbText
 10
0.0
 20
-34.5
 30
0.0
 40
1.0
  1

100
AcDbAttributeDefinition
  3
Genius Normteile ID
  2
0GENINF
 70
     1
  0
ENDBLK
  5
5C8
330
593
100
AcDbEntity
  8
0
100
AcDbBlockEnd
  0
BLOCK
  5
B24
330
B1D
100
AcDbEntity
  8
0
100
AcDbBlockBegin
  2
*X1
 70
     1
 10
0.0
 20
0.0
 30
0.0
  3
*X1
  1
GEVFRAME
  0
LINE
  5
B1E
330
B1D
100
AcDbEntity
  8
0
  6
Continuous
 62
     0
100
AcDbLine
 10
195.133491124038
 20
244.6309658070964
 30
0.0
 11
204.3405845
 21
253.8380591830583
 31
0.0
  0
LINE
  5
B1F
330
B1D
100
AcDbEntity
  8
0
  6
Continuous
 62
     0
100
AcDbLine
 10
194.5516911595359
 20
247.584699748527
 30
0.0
 11
203.3405835
 21
256.3735920889911
 31
0.0
  0
LINE
  5
B20
330
B1D
100
AcDbEntity
  8
0
  6
Continuous
 62
     0
100
AcDbLine
 10
195.046920790299
 20
251.6154632852228
 30
0.0
 11
199.9544165050762
 21
256.522959
 31
0.0
  0
LINE
  5
B21
330
B1D
100
AcDbEntity
  8
0
  6
Continuous
 62
     0
100
AcDbLine
 10
195.238484538964
 20
255.3425609398206
 30
0.0
 11
196.4188825991435
 21
256.522959
 31
0.0
  0
LINE
  5
B22
330
B1D
100
AcDbEntity
  8
0
  6
Continuous
 62
     0
100
AcDbLine
 10
198.5610182228744
 20
244.522959
 30
0.0
 11
203.0405835
 21
249.0025242771256
 31
0.0
  0
LINE
  5
B23
330
B1D
100
AcDbEntity
  8
0
  6
Continuous
 62
     0
100
AcDbLine
 10
202.0965521288072
 20
244.522959
 30
0.0
 11
203.0405835
 21
245.4669903711928
 31
0.0
  0
ENDBLK
  5
B25
330
B1D
100
AcDbEntity
  8
0
100
AcDbBlockEnd
  0
BLOCK
  5
B2B
330
B26
100
AcDbEntity
  8
0
100
AcDbBlockBegin
  2
*X2
 70
     1
 10
0.0
 20
0.0
 30
0.0
  3
*X2
  1
GEVFRAME
  0
LINE
  5
B27
330
B26
100
AcDbEntity
  8
0
  6
Continuous
 62
     0
100
AcDbLine
 10
213.640584
 20
248.9959230593274
 30
0.0
 11
214.3405845
 21
249.6959235593273
 31
0.0
  0
LINE
  5
B28
330
B26
100
AcDbEntity
  8
0
  6
Continuous
 62
     0
100
AcDbLine
 10
212.3405845
 20
251.23145746526
 30
0.0
 11
214.3405845
 21
253.2314574652601
 31
0.0
  0
LINE
  5
B29
330
B26
100
AcDbEntity
  8
0
  6
Continuous
 62
     0
100
AcDbLine
 10
213.340584
 20
255.7669908711929
 30
0.0
 11
214.0965521288072
 21
256.5229590000001
 31
0.0
  0
LINE
  5
B2A
330
B26
100
AcDbEntity
  8
0
  6
Continuous
 62
     0
100
AcDbLine
 10
213.640584
 20
245.4603891533946
 30
0.0
 11
214.3405845
 21
246.1603896533946
 31
0.0
  0
ENDBLK
  5
B2C
330
B26
100
AcDbEntity
  8
0
100
AcDbBlockEnd
  0
BLOCK
  5
1008
330
1007
100
AcDbEntity
  8
0
100
AcDbBlockBegin
  2
*U3
 70
     1
 10
0.0
 20
0.0
 30
0.0
  3
*U3
  1
*U
  0
LINE
  5
1009
330
1007
100
AcDbEntity
  8
CENN
100
AcDbLine
 10
0.0
 20
-7.0
 30
0.0
 11
0.0
 21
7.0
 31
0.0
  0
CIRCLE
  5
100A
330
1007
100
AcDbEntity
  8
BHMM
100
AcDbCircle
 10
0.0
 20
0.0
 30
0.0
 40
3.3235
  0
ARC
  5
100B
330
1007
100
AcDbEntity
  8
THLI
100
AcDbCircle
 10
0.0
 20
0.0
 30
0.0
 40
4.0
100
AcDbArc
 50
280.0
 51
210.0
  0
LINE
  5
100C
330
1007
100
AcDbEntity
  8
CENN
100
AcDbLine
 10
-7.0
 20
0.0
 30
0.0
 11
7.0
 21
0.0
 31
0.0
  0
ENDBLK
  5
100D
330
1007
100
AcDbEntity
  8
0
100
AcDbBlockEnd
  0
BLOCK
  5
100F
330
100E
100
AcDbEntity
  8
0
100
AcDbBlockBegin
  2
*U4
 70
     1
 10
0.0
 20
0.0
 30
0.0
  3
*U4
  1
*U
  0
INSERT
  5
1010
330
100E
100
AcDbEntity
  8
GEV_FROZEN
100
AcDbBlockReference
  2
*U3
 10
0.0
 20
0.0
 30
0.0
 41
0.1
 42
0.1
 43
0.1
1001
GENBH
1002
{
1000
-NOBRK
1002
}
  0
LINE
  5
1011
330
100E
100
AcDbEntity
  8
MSRI3_6-7A
100
AcDbLine
 10
0.0
 20
-7.0
 30
0.0
 11
0.0
 21
7.0
 31
0.0
  0
CIRCLE
  5
1012
330
100E
100
AcDbEntity
  8
MSRI3_6-2
100
AcDbCircle
 10
0.0
 20
0.0
 30
0.0
 40
3.3235
  0
ARC
  5
1013
330
100E
100
AcDbEntity
  8
MSRI3_6-4
100
AcDbCircle
 10
0.0
 20
0.0
 30
0.0
 40
4.0
100
AcDbArc
 50
280.0
 51
210.0
  0
LINE
  5
1014
330
100E
100
AcDbEntity
  8
MSRI3_6-7A
100
AcDbLine
 10
-7.0
 20
0.0
 30
0.0
 11
7.0
 21
0.0
 31
0.0
  0
ENDBLK
  5
1015
330
100E
100
AcDbEntity
  8
0
100
AcDbBlockEnd
  0
BLOCK
  5
1018
330
1017
100
AcDbEntity
  8
0
100
AcDbBlockBegin
  2
*U5
 70
     1
 10
0.0
 20
0.0
 30
0.0
  3
*U5
  1
*U
  0
LINE
  5
1019
330
1017
100
AcDbEntity
  8
CENN
100
AcDbLine
 10
0.0
 20
-7.0
 30
0.0
 11
0.0
 21
7.0
 31
0.0
  0
CIRCLE
  5
101A
330
1017
100
AcDbEntity
  8
BHMM
100
AcDbCircle
 10
0.0
 20
0.0
 30
0.0
 40
3.3235
  0
ARC
  5
101B
330
1017
100
AcDbEntity
  8
THLI
100
AcDbCircle
 10
0.0
 20
0.0
 30
0.0
 40
4.0
100
AcDbArc
 50
280.0
 51
210.0
  0
LINE
  5
101C
330
1017
100
AcDbEntity
  8
CENN
100
AcDbLine
 10
-7.0
 20
0.0
 30
0.0
 11
7.0
 21
0.0
 31
0.0
  0
ENDBLK
  5
101D
330
1017
100
AcDbEntity
  8
0
100
AcDbBlockEnd
  0
BLOCK
  5
101F
330
101E
100
AcDbEntity
  8
0
100
AcDbBlockBegin
  2
*U6
 70
     1
 10
0.0
 20
0.0
 30
0.0
  3
*U6
  1
*U
  0
INSERT
  5
1020
330
101E
100
AcDbEntity
  8
GEV_FROZEN
100
AcDbBlockReference
  2
*U5
 10
0.0
 20
0.0
 30
0.0
 41
0.1
 42
0.1
 43
0.1
1001
GENBH
1002
{
1000
-NOBRK
1002
}
  0
LINE
  5
1021
330
101E
100
AcDbEntity
  8
MSRI3_6-7A
100
AcDbLine
 10
0.0
 20
-7.0
 30
0.0
 11
0.0
 21
7.0
 31
0.0
  0
CIRCLE
  5
1022
330
101E
100
AcDbEntity
  8
MSRI3_6-2
100
AcDbCircle
 10
0.0
 20
0.0
 30
0.0
 40
3.3235
  0
ARC
  5
1023
330
101E
100
AcDbEntity
  8
MSRI3_6-4
100
AcDbCircle
 10
0.0
 20
0.0
 30
0.0
 40
4.0
100
AcDbArc
 50
280.0
 51
210.0
  0
LINE
  5
1024
330
101E
100
AcDbEntity
  8
MSRI3_6-7A
100
AcDbLine
 10
-7.0
 20
0.0
 30
0.0
 11
7.0
 21
0.0
 31
0.0
  0
ENDBLK
  5
1025
330
101E
100
AcDbEntity
  8
0
100
AcDbBlockEnd
  0
BLOCK
  5
1028
330
1027
100
AcDbEntity
  8
0
100
AcDbBlockBegin
  2
*U7
 70
     1
 10
0.0
 20
0.0
 30
0.0
  3
*U7
  1
*U
  0
LINE
  5
1029
330
1027
100
AcDbEntity
  8
CENN
100
AcDbLine
 10
0.0
 20
-7.0
 30
0.0
 11
0.0
 21
7.0
 31
0.0
  0
CIRCLE
  5
102A
330
1027
100
AcDbEntity
  8
BHMM
100
AcDbCircle
 10
0.0
 20
0.0
 30
0.0
 40
3.3235
  0
ARC
  5
102B
330
1027
100
AcDbEntity
  8
THLI
100
AcDbCircle
 10
0.0
 20
0.0
 30
0.0
 40
4.0
100
AcDbArc
 50
280.0
 51
210.0
  0
LINE
  5
102C
330
1027
100
AcDbEntity
  8
CENN
100
AcDbLine
 10
-7.0
 20
0.0
 30
0.0
 11
7.0
 21
0.0
 31
0.0
  0
ENDBLK
  5
102D
330
1027
100
AcDbEntity
  8
0
100
AcDbBlockEnd
  0
BLOCK
  5
102F
330
102E
100
AcDbEntity
  8
0
100
AcDbBlockBegin
  2
*U8
 70
     1
 10
0.0
 20
0.0
 30
0.0
  3
*U8
  1
*U
  0
INSERT
  5
1030
330
102E
100
AcDbEntity
  8
GEV_FROZEN
100
AcDbBlockReference
  2
*U7
 10
0.0
 20
0.0
 30
0.0
 41
0.1
 42
0.1
 43
0.1
1001
GENBH
1002
{
1000
-NOBRK
1002
}
  0
LINE
  5
1031
330
102E
100
AcDbEntity
  8
MSRI3_6-7A
100
AcDbLine
 10
0.0
 20
-7.0
 30
0.0
 11
0.0
 21
7.0
 31
0.0
  0
CIRCLE
  5
1032
330
102E
100
AcDbEntity
  8
MSRI3_6-2
100
AcDbCircle
 10
0.0
 20
0.0
 30
0.0
 40
3.3235
  0
ARC
  5
1033
330
102E
100
AcDbEntity
  8
MSRI3_6-4
100
AcDbCircle
 10
0.0
 20
0.0
 30
0.0
 40
4.0
100
AcDbArc
 50
280.0
 51
210.0
  0
LINE
  5
1034
330
102E
100
AcDbEntity
  8
MSRI3_6-7A
100
AcDbLine
 10
-7.0
 20
0.0
 30
0.0
 11
7.0
 21
0.0
 31
0.0
  0
ENDBLK
  5
1035
330
102E
100
AcDbEntity
  8
0
100
AcDbBlockEnd
  0
BLOCK
  5
1038
330
1037
100
AcDbEntity
  8
0
100
AcDbBlockBegin
  2
*U9
 70
     1
 10
0.0
 20
0.0
 30
0.0
  3
*U9
  1
*U
  0
LINE
  5
1039
330
1037
100
AcDbEntity
  8
CENN
100
AcDbLine
 10
0.0
 20
-7.0
 30
0.0
 11
0.0
 21
7.0
 31
0.0
  0
CIRCLE
  5
103A
330
1037
100
AcDbEntity
  8
BHMM
100
AcDbCircle
 10
0.0
 20
0.0
 30
0.0
 40
3.3235
  0
ARC
  5
103B
330
1037
100
AcDbEntity
  8
THLI
100
AcDbCircle
 10
0.0
 20
0.0
 30
0.0
 40
4.0
100
AcDbArc
 50
280.0
 51
210.0
  0
LINE
  5
103C
330
1037
100
AcDbEntity
  8
CENN
100
AcDbLine
 10
-7.0
 20
0.0
 30
0.0
 11
7.0
 21
0.0
 31
0.0
  0
ENDBLK
  5
103D
330
1037
100
AcDbEntity
  8
0
100
AcDbBlockEnd
  0
BLOCK
  5
103F
330
103E
100
AcDbEntity
  8
0
100
AcDbBlockBegin
  2
*U10
 70
     1
 10
0.0
 20
0.0
 30
0.0
  3
*U10
  1
*U
  0
INSERT
  5
1040
330
103E
100
AcDbEntity
  8
GEV_FROZEN
100
AcDbBlockReference
  2
*U9
 10
0.0
 20
0.0
 30
0.0
 41
0.1
 42
0.1
 43
0.1
1001
GENBH
1002
{
1000
-NOBRK
1002
}
  0
LINE
  5
1041
330
103E
100
AcDbEntity
  8
MSRI3_6-7A
100
AcDbLine
 10
0.0
 20
-7.0
 30
0.0
 11
0.0
 21
7.0
 31
0.0
  0
CIRCLE
  5
1042
330
103E
100
AcDbEntity
  8
MSRI3_6-2
100
AcDbCircle
 10
0.0
 20
0.0
 30
0.0
 40
3.3235
  0
ARC
  5
1043
330
103E
100
AcDbEntity
  8
MSRI3_6-4
100
AcDbCircle
 10
0.0
 20
0.0
 30
0.0
 40
4.0
100
AcDbArc
 50
280.0
 51
210.0
  0
LINE
  5
1044
330
103E
100
AcDbEntity
  8
MSRI3_6-7A
100
AcDbLine
 10
-7.0
 20
0.0
 30
0.0
 11
7.0
 21
0.0
 31
0.0
  0
ENDBLK
  5
1045
330
103E
100
AcDbEntity
  8
0
100
AcDbBlockEnd
  0
BLOCK
  5
112F
330
112D
100
AcDbEntity
  8
0
100
AcDbBlockBegin
  2
GENAXEH
 70
     0
 10
0.0
 20
0.0
 30
0.0
  3
GENAXEH
  1

  0
LINE
  5
112E
330
112D
100
AcDbEntity
  8
0
100
AcDbLine
 10
-1.0
 20
0.0
 30
0.0
 11
1.0
 21
0.0
 31
0.0
  0
ENDBLK
  5
1130
330
112D
100
AcDbEntity
  8
0
100
AcDbBlockEnd
  0
ENDSEC
  0
SECTION
  2
ENTITIES
  0
XLINE
  5
56F
330
1A
100
AcDbEntity
  8
KLIN
100
AcDbXline
 10
153.340584
 20
104.766207
 30
0.0
 11
1.0
 21
0.0
 31
0.0
  0
XLINE
  5
571
330
1A
100
AcDbEntity
  8
KLIN
100
AcDbXline
 10
153.340584
 20
95.76620700000001
 30
0.0
 11
1.0
 21
0.0
 31
0.0
  0
INSERT
  5
DBB
330
1A
100
AcDbEntity
  8
MSRI3_6-2
100
AcDbBlockReference
  2
*U8
 10
208.3405845
 20
115.0373901660282
 30
0.0
1001
GENIUS_GEFPARTINS_13
1002
{
1011
208.3405845
1021
115.0373901660282
1031
0.0
1013
1.0
1023
0.0
1033
0.0
1002
}
1001
VCC
1002
{
1000
-ID11
1000
-IE3
1000
-IK11
1000
-V$PV_GENSYSTEM"GEF\VAL\DI\0401\DI1616_D.DXF"
1002
}
1001
GEVIT
1002
{
1000
-BEHI3.00000001
1000
-BVCCT0
1000
-GRP0?
1000
-BAML2
1000
-BASK1
1000
-NT0
1000
-DOC
1005
1028
1000
-MYREF
1005
DBB
1002
}
1001
GEVPT
1002
{
1000
-V$PV_GENSYSTEM"GEF\VAL\DI\0401\DI1616_D.DXF"
1000
-GPGEF_PROCALC=1
1000
-GPGEF_FLIPY=1
1000
-GPGEF_FLIPX=1
1000
-GPGEF_SNK_ADD=0
1000
-GPGEVPROMPTX=Länge:
1000
-GPGEF_OANG=70
1000
-GPGEF_STANG=210
1000
-GPGEF_DRAG=1
1000
-GPGEF_CDIST=3
1000
-GPVCC_TABLE=C:\GENIUS\gef\val\di\0401\di1616.val
1000
-GPNND=8
1000
-GPPRE=M
1002
}
1001
GENIUS_GENOREF_13
1005
1006
1005
1005
1001
GEVMK
1002
{
1000
-CO
1000
-MYREF
1005
DBB
1002
}
1001
GEVID886405610
1002
{
1002
}
  0
INSERT
  5
DBC
330
1A
100
AcDbEntity
  8
MSRI3_6-2
100
AcDbBlockReference
  2
*U6
 10
208.3405845
 20
163.0373916660282
 30
0.0
1001
GENIUS_GEFPARTINS_13
1002
{
1011
208.3405845
1021
163.0373916660282
1031
0.0
1013
1.0
1023
0.0
1033
0.0
1002
}
1001
VCC
1002
{
1000
-ID10
1000
-IE2
1000
-IK10
1000
-V$PV_GENSYSTEM"GEF\VAL\DI\0401\DI1616_D.DXF"
1002
}
1001
GEVIT
1002
{
1000
-BEHI2.00000001
1000
-BVCCT0
1000
-GRP0?
1000
-BAML2
1000
-BASK1
1000
-NT0
1000
-DOC
1005
1018
1000
-MYREF
1005
DBC
1002
}
1001
GEVPT
1002
{
1000
-V$PV_GENSYSTEM"GEF\VAL\DI\0401\DI1616_D.DXF"
1000
-GPGEF_PROCALC=1
1000
-GPGEF_FLIPY=1
1000
-GPGEF_FLIPX=1
1000
-GPGEF_SNK_ADD=0
1000
-GPGEVPROMPTX=Länge:
1000
-GPGEF_OANG=70
1000
-GPGEF_STANG=210
1000
-GPGEF_DRAG=1
1000
-GPGEF_CDIST=3
1000
-GPVCC_TABLE=C:\GENIUS\gef\val\di\0401\di1616.val
1000
-GPNND=8
1000
-GPPRE=M
1002
}
1001
GENIUS_GENOREF_13
1005
1004
1005
1003
1001
GEVMK
1002
{
1000
-CO
1000
-MYREF
1005
DBC
1002
}
1001
GEVID886405609
1002
{
1002
}
  0
LINE
  5
DBD
330
1A
100
AcDbEntity
  8
MSRI3_6-0
100
AcDbLine
 10
240.340584
 20
375.525396
 30
0.0
 11
125.3405835
 21
375.525396
 31
0.0
  0
LINE
  5
DBE
330
1A
100
AcDbEntity
  8
MSRI3_6-0
100
AcDbLine
 10
240.340584
 20
315.525396
 30
0.0
 11
125.3405835
 21
315.525396
 31
0.0
  0
CIRCLE
  5
DBF
330
1A
100
AcDbEntity
  8
MSRI3_6-0
100
AcDbCircle
 10
204.340584
 20
325.5253965
 30
0.0
 40
2.500000499999999
  0
ARC
  5
DC0
330
1A
100
AcDbEntity
  8
MSRI3_6-4
100
AcDbCircle
 10
204.340584
 20
325.5253965
 30
0.0
 40
3.0
100
AcDbArc
 50
180.0
 51
90.0
  0
CIRCLE
  5
DC1
330
1A
100
AcDbEntity
  8
MSRI3_6-0
100
AcDbCircle
 10
204.340584
 20
345.525396
 30
0.0
 40
3.0
  0
LINE
  5
DC2
330
1A
100
AcDbEntity
  8
MSRI3_6-7
100
AcDbLine
 10
198.648432
 20
325.5253965
 30
0.0
 11
209.8599705
 21
325.5253965
 31
0.0
  0
LINE
  5
DC3
330
1A
100
AcDbEntity
  8
MSRI3_6-7
100
AcDbLine
 10
200.2813785
 20
345.525396
 30
0.0
 11
209.8599705
 21
345.525396
 31
0.0
  0
LINE
  5
DC4
330
1A
100
AcDbEntity
  8
MSRI3_6-7
100
AcDbLine
 10
198.648432
 20
365.5253955
 30
0.0
 11
209.8599705
 21
365.5253955
 31
0.0
  0
CIRCLE
  5
DC5
330
1A
100
AcDbEntity
  8
MSRI3_6-0
100
AcDbCircle
 10
204.340584
 20
365.5253955
 30
0.0
 40
2.500000499999999
  0
ARC
  5
DC6
330
1A
100
AcDbEntity
  8
MSRI3_6-4
100
AcDbCircle
 10
204.340584
 20
365.5253955
 30
0.0
 40
3.0
100
AcDbArc
 50
180.0
 51
90.0
  0
LINE
  5
DC7
330
1A
100
AcDbEntity
  8
MSRI3_6-2
100
AcDbLine
 10
204.940584
 20
287.452118416463
 30
0.0
 11
211.7405835
 21
287.452118416463
 31
0.0
  0
LINE
  5
DC8
330
1A
100
AcDbEntity
  8
MSRI3_6-2
100
AcDbLine
 10
204.940584
 20
290.852118916463
 30
0.0
 11
211.7405835
 21
290.852118916463
 31
0.0
  0
TEXT
  5
DC9
330
1A
100
AcDbEntity
  8
6
100
AcDbText
 10
189.9112938422227
 20
230.6949217942134
 30
0.0
 40
3.5
  1
MSR I3/6
100
AcDbText
  0
LINE
  5
DCA
330
1A
100
AcDbEntity
  8
MSRI3_6-2
100
AcDbLine
 10
154.340583
 20
292.9521189164631
 30
0.0
 11
214.3405845
 21
292.9521189164631
 31
0.0
  0
LINE
  5
DCB
330
1A
100
AcDbEntity
  8
MSRI3_6-2
100
AcDbLine
 10
213.8405835
 20
262.9521189164631
 30
0.0
 11
154.840584
 21
262.9521189164631
 31
0.0
  0
LINE
  5
DCC
330
1A
100
AcDbEntity
  8
MSRI3_6-2
100
AcDbLine
 10
213.8405835
 20
268.9521189164631
 30
0.0
 11
184.340583
 21
268.9521189164631
 31
0.0
  0
LINE
  5
DCD
330
1A
100
AcDbEntity
  8
MSRI3_6-2
100
AcDbLine
 10
214.3405845
 20
280.9521189164631
 30
0.0
 11
184.340583
 21
280.9521189164631
 31
0.0
  0
LINE
  5
DCE
330
1A
100
AcDbEntity
  8
MSRI3_6-0
100
AcDbLine
 10
240.340584
 20
262.4521179164631
 30
0.0
 11
155.840583
 21
262.4521179164631
 31
0.0
  0
LINE
  5
DCF
330
1A
100
AcDbEntity
  8
MSRI3_6-0
100
AcDbLine
 10
240.340584
 20
223.9521174164631
 30
0.0
 11
125.3405835
 21
223.9521174164631
 31
0.0
  0
LINE
  5
DD0
330
1A
100
AcDbEntity
  8
MSRI3_6-0
100
AcDbLine
 10
125.3405835
 20
196.952117416463
 30
0.0
 11
234.840584
 21
196.952117416463
 31
0.0
  0
LINE
  5
DD1
330
1A
100
AcDbEntity
  8
MSRI3_6-2
100
AcDbLine
 10
214.3405845
 20
109.0373901660282
 30
0.0
 11
154.340583
 21
109.0373901660282
 31
0.0
  0
LINE
  5
DD2
330
1A
100
AcDbEntity
  8
MSRI3_6-2
100
AcDbLine
 10
154.340583
 20
169.0373916660282
 30
0.0
 11
214.3405845
 21
169.0373916660282
 31
0.0
  0
CIRCLE
  5
DD3
330
1A
100
AcDbEntity
  8
MSRI3_6-2
100
AcDbCircle
 10
208.3405845
 20
115.0373901660282
 30
0.0
 40
4.9999995
  0
LINE
  5
DD4
330
1A
100
AcDbEntity
  8
MSRI3_6-7
100
AcDbLine
 10
199.435608
 20
115.0373901660282
 30
0.0
 11
216.1628805
 21
115.0373901660282
 31
0.0
1001
GENIUS_GENOREF_13
1005
1002
  0
LINE
  5
DD5
330
1A
100
AcDbEntity
  8
MSRI3_6-7
100
AcDbLine
 10
199.435608
 20
163.0373916660282
 30
0.0
 11
216.1628805
 21
163.0373916660282
 31
0.0
1001
GENIUS_GENOREF_13
1005
1001
  0
CIRCLE
  5
DD6
330
1A
100
AcDbEntity
  8
MSRI3_6-2
100
AcDbCircle
 10
208.3405845
 20
163.0373916660282
 30
0.0
 40
4.9999995
  0
LINE
  5
DD7
330
1A
100
AcDbEntity
  8
MSRI3_6-7
100
AcDbLine
 10
184.340583
 20
193.661346916463
 30
0.0
 11
184.340583
 21
300.172782916463
 31
0.0
  0
LINE
  5
DD8
330
1A
100
AcDbEntity
  8
MSRI3_6-0
100
AcDbLine
 10
125.3405835
 20
264.4521189164631
 30
0.0
 11
125.3405835
 21
196.952117416463
 31
0.0
  0
LINE
  5
DD9
330
1A
100
AcDbEntity
  8
MSRI3_6-7
100
AcDbLine
 10
135.8405835
 20
221.690772916463
 30
0.0
 11
135.8405835
 21
213.8693454164631
 31
0.0
  0
LINE
  5
DDA
330
1A
100
AcDbEntity
  8
MSRI3_6-3
100
AcDbLine
 10
166.840584
 20
223.9521174164631
 30
0.0
 11
166.840584
 21
196.952117416463
 31
0.0
  0
LINE
  5
DDB
330
1A
100
AcDbEntity
  8
MSRI3_6-3
100
AcDbLine
 10
167.3405835
 20
223.9521174164631
 30
0.0
 11
167.3405835
 21
196.952117416463
 31
0.0
  0
LINE
  5
DDC
330
1A
100
AcDbEntity
  8
MSRI3_6-3
100
AcDbLine
 10
161.3405835
 20
223.9521174164631
 30
0.0
 11
161.3405835
 21
196.952117416463
 31
0.0
  0
LINE
  5
DDD
330
1A
100
AcDbEntity
  8
MSRI3_6-3
100
AcDbLine
 10
161.840583
 20
223.9521174164631
 30
0.0
 11
161.840583
 21
196.952117416463
 31
0.0
  0
LINE
  5
DDE
330
1A
100
AcDbEntity
  8
MSRI3_6-7
100
AcDbLine
 10
164.3405835
 20
225.781646416463
 30
0.0
 11
164.3405835
 21
194.461347916463
 31
0.0
  0
LINE
  5
DDF
330
1A
100
AcDbEntity
  8
MSRI3_6-3
100
AcDbLine
 10
201.340584
 20
223.9521174164631
 30
0.0
 11
201.340584
 21
196.952117416463
 31
0.0
  0
LINE
  5
DE0
330
1A
100
AcDbEntity
  8
MSRI3_6-3
100
AcDbLine
 10
201.8405835
 20
223.9521174164631
 30
0.0
 11
201.8405835
 21
196.952117416463
 31
0.0
  0
LINE
  5
DE1
330
1A
100
AcDbEntity
  8
MSRI3_6-7
100
AcDbLine
 10
204.340584
 20
226.081646416463
 30
0.0
 11
204.340584
 21
194.661347416463
 31
0.0
  0
ARC
  5
DE2
330
1A
100
AcDbEntity
  8
MSRI3_6-4
100
AcDbCircle
 10
135.8405835
 20
217.952117416463
 30
0.0
 40
2.5
100
AcDbArc
 50
180.0
 51
90.0
  0
LINE
  5
DE3
330
1A
100
AcDbEntity
  8
MSRI3_6-0
100
AcDbLine
 10
141.340584
 20
169.0373916660282
 30
0.0
 11
125.3405835
 21
169.0373916660282
 31
0.0
  0
LINE
  5
DE4
330
1A
100
AcDbEntity
  8
MSRI3_6-0
100
AcDbLine
 10
141.340584
 20
109.0373901660282
 30
0.0
 11
125.3405835
 21
109.0373901660282
 31
0.0
  0
LINE
  5
DE5
330
1A
100
AcDbEntity
  8
MSRI3_6-0
100
AcDbLine
 10
135.340584
 20
169.0373916660282
 30
0.0
 11
135.340584
 21
109.0373901660282
 31
0.0
  0
LINE
  5
DE6
330
1A
100
AcDbEntity
  8
MSRI3_6-0
100
AcDbLine
 10
125.3405835
 20
121.0373916660282
 30
0.0
 11
125.3405835
 21
157.0373916660282
 31
0.0
  0
LINE
  5
DE7
330
1A
100
AcDbEntity
  8
MSRI3_6-0
100
AcDbLine
 10
120.340584
 20
143.3026026660282
 30
0.0
 11
120.340584
 21
157.0373916660282
 31
0.0
  0
LINE
  5
DE8
330
1A
100
AcDbEntity
  8
MSRI3_6-7
100
AcDbLine
 10
99.69090149999999
 20
116.0373906660282
 30
0.0
 11
135.340584
 21
116.0373906660282
 31
0.0
  0
POLYLINE
  5
DE9
330
1A
100
AcDbEntity
  8
MSRI3_6-0
100
AcDb2dPolyline
 66
     1
 10
0.0
 20
0.0
 30
0.0
 70
     1
  0
VERTEX
  5
DEA
330
DE9
100
AcDbEntity
  8
MSRI3_6-0
  6
Continuous
100
AcDbVertex
100
AcDb2dVertex
 10
102.340584
 20
108.5373906660282
 30
0.0
  0
VERTEX
  5
DEB
330
DE9
100
AcDbEntity
  8
MSRI3_6-0
  6
Continuous
100
AcDbVertex
100
AcDb2dVertex
 10
114.340584
 20
108.5373906660282
 30
0.0
  0
VERTEX
  5
DEC
330
DE9
100
AcDbEntity
  8
MSRI3_6-0
  6
Continuous
100
AcDbVertex
100
AcDb2dVertex
 10
114.340584
 20
123.5373906660282
 30
0.0
  0
VERTEX
  5
DED
330
DE9
100
AcDbEntity
  8
MSRI3_6-0
  6
Continuous
100
AcDbVertex
100
AcDb2dVertex
 10
102.340584
 20
123.5373906660282
 30
0.0
  0
VERTEX
  5
DEE
330
DE9
100
AcDbEntity
  8
MSRI3_6-0
  6
Continuous
100
AcDbVertex
100
AcDb2dVertex
 10
102.340584
 20
108.5373906660282
 30
0.0
  0
SEQEND
  5
DEF
330
DE9
100
AcDbEntity
  8
MSRI3_6-0
  0
LINE
  5
DF0
330
1A
100
AcDbEntity
  8
MSRI3_6-0
100
AcDbLine
 10
102.340584
 20
112.5373911660282
 30
0.0
 11
114.340584
 21
112.5373911660282
 31
0.0
  0
LINE
  5
DF1
330
1A
100
AcDbEntity
  8
MSRI3_6-0
100
AcDbLine
 10
102.340584
 20
119.5373916660282
 30
0.0
 11
114.340584
 21
119.5373916660282
 31
0.0
  0
LINE
  5
DF2
330
1A
100
AcDbEntity
  8
MSRI3_6-0
100
AcDbLine
 10
135.340584
 20
111.0373911660282
 30
0.0
 11
114.340584
 21
111.0373911660282
 31
0.0
  0
LINE
  5
DF3
330
1A
100
AcDbEntity
  8
MSRI3_6-4
100
AcDbLine
 10
114.340584
 20
111.5373906660282
 30
0.0
 11
135.340584
 21
111.5373906660282
 31
0.0
  0
LINE
  5
DF4
330
1A
100
AcDbEntity
  8
MSRI3_6-0
100
AcDbLine
 10
125.3405835
 20
109.0373901660282
 30
0.0
 11
125.3405835
 21
111.0373911660282
 31
0.0
  0
LINE
  5
DF5
330
1A
100
AcDbEntity
  8
MSRI3_6-0
100
AcDbLine
 10
135.340584
 20
121.0373916660282
 30
0.0
 11
114.340584
 21
121.0373916660282
 31
0.0
  0
LINE
  5
DF6
330
1A
100
AcDbEntity
  8
MSRI3_6-4
100
AcDbLine
 10
114.340584
 20
120.5373906660282
 30
0.0
 11
135.340584
 21
120.5373906660282
 31
0.0
  0
LINE
  5
DF7
330
1A
100
AcDbEntity
  8
MSRI3_6-0
100
AcDbLine
 10
120.340584
 20
123.5373906660282
 30
0.0
 11
125.3405835
 21
123.5373906660282
 31
0.0
  0
LINE
  5
DF8
330
1A
100
AcDbEntity
  8
MSRI3_6-0
100
AcDbLine
 10
120.340584
 20
123.5373906660282
 30
0.0
 11
125.3405835
 21
123.5373906660282
 31
0.0
  0
LINE
  5
DF9
330
1A
100
AcDbEntity
  8
MSRI3_6-0
100
AcDbLine
 10
120.340584
 20
129.1118976660282
 30
0.0
 11
125.3405835
 21
129.1118976660282
 31
0.0
  0
LINE
  5
DFA
330
1A
100
AcDbEntity
  8
MSRI3_6-0
100
AcDbLine
 10
125.3405835
 20
134.7721776660282
 30
0.0
 11
120.340584
 21
134.7721776660282
 31
0.0
  0
LINE
  5
DFB
330
1A
100
AcDbEntity
  8
MSRI3_6-0
100
AcDbLine
 10
120.340584
 20
148.9628841660282
 30
0.0
 11
125.3405835
 21
148.9628841660282
 31
0.0
  0
LINE
  5
DFC
330
1A
100
AcDbEntity
  8
MSRI3_6-0
100
AcDbLine
 10
125.3405835
 20
143.3026026660282
 30
0.0
 11
120.340584
 21
143.3026026660282
 31
0.0
  0
LINE
  5
DFD
330
1A
100
AcDbEntity
  8
MSRI3_6-0
100
AcDbLine
 10
120.340584
 20
134.7721776660282
 30
0.0
 11
120.340584
 21
121.0373916660282
 31
0.0
  0
LINE
  5
DFE
330
1A
100
AcDbEntity
  8
MSRI3_6-7
100
AcDbLine
 10
99.69090149999999
 20
162.0373911660282
 30
0.0
 11
135.340584
 21
162.0373911660282
 31
0.0
  0
POLYLINE
  5
DFF
330
1A
100
AcDbEntity
  8
MSRI3_6-0
100
AcDb2dPolyline
 66
     1
 10
0.0
 20
0.0
 30
0.0
 70
     1
  0
VERTEX
  5
E00
330
DFF
100
AcDbEntity
  8
MSRI3_6-0
  6
Continuous
100
AcDbVertex
100
AcDb2dVertex
 10
102.340584
 20
154.5373911660282
 30
0.0
  0
VERTEX
  5
E01
330
DFF
100
AcDbEntity
  8
MSRI3_6-0
  6
Continuous
100
AcDbVertex
100
AcDb2dVertex
 10
114.340584
 20
154.5373911660282
 30
0.0
  0
VERTEX
  5
E02
330
DFF
100
AcDbEntity
  8
MSRI3_6-0
  6
Continuous
100
AcDbVertex
100
AcDb2dVertex
 10
114.340584
 20
169.5373911660282
 30
0.0
  0
VERTEX
  5
E03
330
DFF
100
AcDbEntity
  8
MSRI3_6-0
  6
Continuous
100
AcDbVertex
100
AcDb2dVertex
 10
102.340584
 20
169.5373911660282
 30
0.0
  0
VERTEX
  5
E04
330
DFF
100
AcDbEntity
  8
MSRI3_6-0
  6
Continuous
100
AcDbVertex
100
AcDb2dVertex
 10
102.340584
 20
154.5373911660282
 30
0.0
  0
SEQEND
  5
E05
330
DFF
100
AcDbEntity
  8
MSRI3_6-0
  0
LINE
  5
E06
330
1A
100
AcDbEntity
  8
MSRI3_6-0
100
AcDbLine
 10
102.340584
 20
158.5373916660282
 30
0.0
 11
114.340584
 21
158.5373916660282
 31
0.0
  0
LINE
  5
E07
330
1A
100
AcDbEntity
  8
MSRI3_6-0
100
AcDbLine
 10
102.340584
 20
165.5373906660282
 30
0.0
 11
114.340584
 21
165.5373906660282
 31
0.0
  0
LINE
  5
E08
330
1A
100
AcDbEntity
  8
MSRI3_6-0
100
AcDbLine
 10
135.340584
 20
157.0373916660282
 30
0.0
 11
114.340584
 21
157.0373916660282
 31
0.0
  0
LINE
  5
E09
330
1A
100
AcDbEntity
  8
MSRI3_6-0
100
AcDbLine
 10
135.340584
 20
167.0373906660282
 30
0.0
 11
114.340584
 21
167.0373906660282
 31
0.0
  0
LINE
  5
E0A
330
1A
100
AcDbEntity
  8
MSRI3_6-4
100
AcDbLine
 10
114.340584
 20
157.5373911660282
 30
0.0
 11
135.340584
 21
157.5373911660282
 31
0.0
  0
LINE
  5
E0B
330
1A
100
AcDbEntity
  8
MSRI3_6-4
100
AcDbLine
 10
114.340584
 20
166.5373911660282
 30
0.0
 11
135.340584
 21
166.5373911660282
 31
0.0
  0
LINE
  5
E0C
330
1A
100
AcDbEntity
  8
MSRI3_6-0
100
AcDbLine
 10
120.340584
 20
154.5373911660282
 30
0.0
 11
125.3405835
 21
154.5373911660282
 31
0.0
  0
LINE
  5
E0D
330
1A
100
AcDbEntity
  8
MSRI3_6-0
100
AcDbLine
 10
120.340584
 20
154.5373911660282
 30
0.0
 11
125.3405835
 21
154.5373911660282
 31
0.0
  0
LINE
  5
E0E
330
1A
100
AcDbEntity
  8
MSRI3_6-0
100
AcDbLine
 10
125.3405835
 20
167.0373906660282
 30
0.0
 11
125.3405835
 21
169.0373916660282
 31
0.0
  0
LINE
  5
E0F
330
1A
100
AcDbEntity
  8
MSRI3_6-7
100
AcDbLine
 10
131.803977
 20
217.952117416463
 30
0.0
 11
140.018262
 21
217.952117416463
 31
0.0
  0
CIRCLE
  5
E10
330
1A
100
AcDbEntity
  8
MSRI3_6-0
100
AcDbCircle
 10
135.8405835
 20
217.952117416463
 30
0.0
 40
2.099999999999999
  0
LINE
  5
E11
330
1A
100
AcDbEntity
  8
MSRI3_6-0
100
AcDbLine
 10
153.340584
 20
109.0373901660282
 30
0.0
 11
153.340584
 21
169.0373916660282
 31
0.0
  0
LINE
  5
E12
330
1A
100
AcDbEntity
  8
MSRI3_6-0
100
AcDbLine
 10
141.340584
 20
109.0373901660282
 30
0.0
 11
141.340584
 21
169.0373916660282
 31
0.0
  0
LINE
  5
E13
330
1A
100
AcDbEntity
  8
MSRI3_6-2
100
AcDbLine
 10
154.340583
 20
109.0373901660282
 30
0.0
 11
154.340583
 21
169.0373916660282
 31
0.0
  0
TEXT
  5
E14
330
1A
100
AcDbEntity
  8
6
100
AcDbText
 10
172.3083183219437
 20
111.724679166571
 30
0.0
 40
3.5
  1
MSR I3/6
100
AcDbText
  0
INSERT
  5
E15
330
1A
100
AcDbEntity
  8
MSRI3_6-2
100
AcDbBlockReference
  2
*U10
 10
160.3405829999999
 20
115.0373901660282
 30
0.0
1001
GENIUS_GEFPARTINS_13
1002
{
1011
160.3405829999999
1021
115.0373901660282
1031
0.0
1013
1.0
1023
0.0
1033
0.0
1002
}
1001
VCC
1002
{
1000
-ID12
1000
-IE4
1000
-IK12
1000
-V$PV_GENSYSTEM"GEF\VAL\DI\0401\DI1616_D.DXF"
1002
}
1001
GEVIT
1002
{
1000
-BEHI4.00000001
1000
-BVCCT0
1000
-GRP0?
1000
-BAML2
1000
-BASK1
1000
-NT0
1000
-DOC
1005
1038
1000
-MYREF
1005
E15
1002
}
1001
GEVPT
1002
{
1000
-V$PV_GENSYSTEM"GEF\VAL\DI\0401\DI1616_D.DXF"
1000
-GPGEF_PROCALC=1
1000
-GPGEF_FLIPY=1
1000
-GPGEF_FLIPX=1
1000
-GPGEF_SNK_ADD=0
1000
-GPGEVPROMPTX=Länge:
1000
-GPGEF_OANG=70
1000
-GPGEF_STANG=210
1000
-GPGEF_DRAG=1
1000
-GPGEF_CDIST=3
1000
-GPVCC_TABLE=C:\GENIUS\gef\val\di\0401\di1616.val
1000
-GPNND=8
1000
-GPPRE=M
1002
}
1001
GENIUS_GENOREF_13
1005
1000
1005
FFF
1001
GEVMK
1002
{
1000
-CO
1000
-MYREF
1005
E15
1002
}
1001
GEVID886405611
1002
{
1002
}
  0
LINE
  5
E16
330
1A
100
AcDbEntity
  8
MSRI3_6-7
100
AcDbLine
 10
160.3405829999999
 20
124.1707476660282
 30
0.0
 11
160.3405829999999
 21
105.9889281660282
 31
0.0
1001
GENIUS_GENOREF_13
1005
FFE
  0
CIRCLE
  5
E17
330
1A
100
AcDbEntity
  8
MSRI3_6-2
100
AcDbCircle
 10
160.3405829999999
 20
115.0373901660282
 30
0.0
 40
4.9999995
  0
LINE
  5
E18
330
1A
100
AcDbEntity
  8
MSRI3_6-7
100
AcDbLine
 10
151.435608
 20
115.0373901660282
 30
0.0
 11
168.1628805
 21
115.0373901660282
 31
0.0
1001
GENIUS_GENOREF_13
1005
FFE
  0
LINE
  5
E19
330
1A
100
AcDbEntity
  8
MSRI3_6-0
100
AcDbLine
 10
154.3405829999999
 20
109.0373901660282
 30
0.0
 11
141.340584
 21
109.0373901660282
 31
0.0
  0
LINE
  5
E1A
330
1A
100
AcDbEntity
  8
MSRI3_6-0
100
AcDbLine
 10
154.340583
 20
111.0373911660282
 30
0.0
 11
153.340584
 21
111.0373911660282
 31
0.0
  0
LINE
  5
E1B
330
1A
100
AcDbEntity
  8
MSRI3_6-4
100
AcDbLine
 10
154.340583
 20
111.5373906660282
 30
0.0
 11
153.340584
 21
111.5373906660282
 31
0.0
  0
LINE
  5
E1C
330
1A
100
AcDbEntity
  8
MSRI3_6-3
100
AcDbLine
 10
158.6753579999999
 20
125.9373906660282
 30
0.0
 11
154.340583
 21
125.9373906660282
 31
0.0
  0
LINE
  5
E1D
330
1A
100
AcDbEntity
  8
MSRI3_6-3
100
AcDbLine
 10
158.6753579999999
 20
125.5373901660282
 30
0.0
 11
154.340583
 21
125.5373901660282
 31
0.0
  0
LINE
  5
E1E
330
1A
100
AcDbEntity
  8
MSRI3_6-3
100
AcDbLine
 10
158.6753579999999
 20
121.3373901660282
 30
0.0
 11
154.340583
 21
121.3373901660282
 31
0.0
  0
LINE
  5
E1F
330
1A
100
AcDbEntity
  8
MSRI3_6-3
100
AcDbLine
 10
158.6753579999999
 20
120.9373911660282
 30
0.0
 11
154.340583
 21
120.9373911660282
 31
0.0
  0
LINE
  5
E20
330
1A
100
AcDbEntity
  8
MSRI3_6-7
100
AcDbLine
 10
152.3286525
 20
123.4373901660282
 30
0.0
 11
161.685795
 21
123.4373901660282
 31
0.0
  0
LINE
  5
E21
330
1A
100
AcDbEntity
  8
MSRI3_6-3
100
AcDbLine
 10
158.6753579999999
 20
141.5373906660282
 30
0.0
 11
154.340583
 21
141.5373906660282
 31
0.0
  0
LINE
  5
E22
330
1A
100
AcDbEntity
  8
MSRI3_6-3
100
AcDbLine
 10
158.6753579999999
 20
141.1373916660282
 30
0.0
 11
154.340583
 21
141.1373916660282
 31
0.0
  0
LINE
  5
E23
330
1A
100
AcDbEntity
  8
MSRI3_6-3
100
AcDbLine
 10
158.6753579999999
 20
136.5373911660282
 30
0.0
 11
154.340583
 21
136.5373911660282
 31
0.0
  0
LINE
  5
E24
330
1A
100
AcDbEntity
  8
MSRI3_6-3
100
AcDbLine
 10
158.6753579999999
 20
136.9373916660282
 30
0.0
 11
154.340583
 21
136.9373916660282
 31
0.0
  0
LINE
  5
E25
330
1A
100
AcDbEntity
  8
MSRI3_6-7
100
AcDbLine
 10
152.3286525
 20
139.0373916660282
 30
0.0
 11
161.685795
 21
139.0373916660282
 31
0.0
  0
LINE
  5
E26
330
1A
100
AcDbEntity
  8
MSRI3_6-0
100
AcDbLine
 10
154.340583
 20
121.0373901660282
 30
0.0
 11
153.340584
 21
121.0373901660282
 31
0.0
  0
LINE
  5
E27
330
1A
100
AcDbEntity
  8
MSRI3_6-4
100
AcDbLine
 10
154.340583
 20
120.5373906660282
 30
0.0
 11
153.340584
 21
120.5373906660282
 31
0.0
  0
LINE
  5
E28
330
1A
100
AcDbEntity
  8
MSRI3_6-7
100
AcDbLine
 10
177.3325695
 20
139.0373916660282
 30
0.0
 11
191.0468055
 21
139.0373916660282
 31
0.0
  0
LINE
  5
E29
330
1A
100
AcDbEntity
  8
MSRI3_6-7
100
AcDbLine
 10
184.340583
 20
145.7568906660282
 30
0.0
 11
184.340583
 21
132.3072381660282
 31
0.0
  0
INSERT
  5
E2A
330
1A
100
AcDbEntity
  8
MSRI3_6-2
100
AcDbBlockReference
  2
*U4
 10
160.3405829999999
 20
163.0373916660282
 30
0.0
1001
GENIUS_GEFPARTINS_13
1002
{
1011
160.3405829999999
1021
163.0373916660282
1031
0.0
1013
1.0
1023
0.0
1033
0.0
1002
}
1001
VCC
1002
{
1000
-ID9
1000
-IE1
1000
-IK9
1000
-V$PV_GENSYSTEM"GEF\VAL\DI\0401\DI1616_D.DXF"
1002
}
1001
GEVIT
1002
{
1000
-BEHI1.00000001
1000
-BVCCT0
1000
-GRP0?
1000
-BAML2
1000
-BASK1
1000
-NT0
1000
-DOC
1005
1008
1000
-MYREF
1005
E2A
1002
}
1001
GEVPT
1002
{
1000
-V$PV_GENSYSTEM"GEF\VAL\DI\0401\DI1616_D.DXF"
1000
-GPGEF_PROCALC=1
1000
-GPGEF_FLIPY=1
1000
-GPGEF_FLIPX=1
1000
-GPGEF_SNK_ADD=0
1000
-GPGEVPROMPTX=Länge:
1000
-GPGEF_OANG=70
1000
-GPGEF_STANG=210
1000
-GPGEF_DRAG=1
1000
-GPGEF_CDIST=3
1000
-GPVCC_TABLE=C:\GENIUS\gef\val\di\0401\di1616.val
1000
-GPNND=8
1000
-GPPRE=M
1002
}
1001
GENIUS_GENOREF_13
1005
FFD
1005
FFC
1001
GEVMK
1002
{
1000
-CO
1000
-MYREF
1005
E2A
1002
}
1001
GEVID886405608
1002
{
1002
}
  0
LINE
  5
E2B
330
1A
100
AcDbEntity
  8
MSRI3_6-3
100
AcDbLine
 10
158.6753579999999
 20
152.1373911660282
 30
0.0
 11
154.340583
 21
152.1373911660282
 31
0.0
  0
CIRCLE
  5
E2C
330
1A
100
AcDbEntity
  8
MSRI3_6-2
100
AcDbCircle
 10
160.3405829999999
 20
163.0373916660282
 30
0.0
 40
4.9999995
  0
LINE
  5
E2D
330
1A
100
AcDbEntity
  8
MSRI3_6-3
100
AcDbLine
 10
158.6753579999999
 20
156.7373916660282
 30
0.0
 11
154.340583
 21
156.7373916660282
 31
0.0
  0
LINE
  5
E2E
330
1A
100
AcDbEntity
  8
MSRI3_6-3
100
AcDbLine
 10
158.6753579999999
 20
157.1373906660282
 30
0.0
 11
154.340583
 21
157.1373906660282
 31
0.0
  0
LINE
  5
E2F
330
1A
100
AcDbEntity
  8
MSRI3_6-3
100
AcDbLine
 10
158.6753579999999
 20
152.5373916660282
 30
0.0
 11
154.340583
 21
152.5373916660282
 31
0.0
  0
LINE
  5
E30
330
1A
100
AcDbEntity
  8
MSRI3_6-7
100
AcDbLine
 10
152.3286525
 20
154.6373916660282
 30
0.0
 11
161.685795
 21
154.6373916660282
 31
0.0
  0
LINE
  5
E31
330
1A
100
AcDbEntity
  8
MSRI3_6-7
100
AcDbLine
 10
151.435608
 20
163.0373916660282
 30
0.0
 11
168.1628805
 21
163.0373916660282
 31
0.0
1001
GENIUS_GENOREF_13
1005
FFB
  0
LINE
  5
E32
330
1A
100
AcDbEntity
  8
MSRI3_6-0
100
AcDbLine
 10
141.340584
 20
156.0373911660282
 30
0.0
 11
141.340584
 21
154.0168881660282
 31
0.0
  0
LINE
  5
E33
330
1A
100
AcDbEntity
  8
MSRI3_6-0
100
AcDbLine
 10
154.340583
 20
157.0373916660282
 30
0.0
 11
153.340584
 21
157.0373916660282
 31
0.0
  0
LINE
  5
E34
330
1A
100
AcDbEntity
  8
MSRI3_6-4
100
AcDbLine
 10
154.340583
 20
157.5373911660282
 30
0.0
 11
153.340584
 21
157.5373911660282
 31
0.0
  0
LINE
  5
E35
330
1A
100
AcDbEntity
  8
MSRI3_6-0
100
AcDbLine
 10
154.340583
 20
167.0373906660282
 30
0.0
 11
153.340584
 21
167.0373906660282
 31
0.0
  0
LINE
  5
E36
330
1A
100
AcDbEntity
  8
MSRI3_6-4
100
AcDbLine
 10
154.340583
 20
166.5373911660282
 30
0.0
 11
153.340584
 21
166.5373911660282
 31
0.0
  0
LINE
  5
E37
330
1A
100
AcDbEntity
  8
MSRI3_6-0
100
AcDbLine
 10
154.3405829999999
 20
169.0373916660282
 30
0.0
 11
141.340584
 21
169.0373916660282
 31
0.0
  0
LINE
  5
E38
330
1A
100
AcDbEntity
  8
MSRI3_6-7
100
AcDbLine
 10
160.3405829999999
 20
172.1707476660282
 30
0.0
 11
160.3405829999999
 21
153.9889296660282
 31
0.0
1001
GENIUS_GENOREF_13
1005
FFB
  0
ARC
  5
E39
330
1A
100
AcDbEntity
  8
MSRI3_6-4
100
AcDbCircle
 10
154.840584
 20
202.9521174164631
 30
0.0
 40
2.5
100
AcDbArc
 50
180.0
 51
90.0
  0
LINE
  5
E3A
330
1A
100
AcDbEntity
  8
MSRI3_6-7
100
AcDbLine
 10
150.803976
 20
202.9521174164631
 30
0.0
 11
159.0182625
 21
202.9521174164631
 31
0.0
  0
ARC
  5
E3B
330
1A
100
AcDbEntity
  8
MSRI3_6-4
100
AcDbCircle
 10
145.340583
 20
202.9521174164631
 30
0.0
 40
2.5
100
AcDbArc
 50
180.0
 51
90.0
  0
LINE
  5
E3C
330
1A
100
AcDbEntity
  8
MSRI3_6-7
100
AcDbLine
 10
154.840584
 20
206.690772916463
 30
0.0
 11
154.840584
 21
198.869345416463
 31
0.0
  0
LINE
  5
E3D
330
1A
100
AcDbEntity
  8
MSRI3_6-7
100
AcDbLine
 10
145.340583
 20
206.690772916463
 30
0.0
 11
145.340583
 21
198.869345416463
 31
0.0
  0
CIRCLE
  5
E3E
330
1A
100
AcDbEntity
  8
MSRI3_6-0
100
AcDbCircle
 10
145.340583
 20
202.9521174164631
 30
0.0
 40
2.099999999999999
  0
CIRCLE
  5
E3F
330
1A
100
AcDbEntity
  8
MSRI3_6-0
100
AcDbCircle
 10
154.840584
 20
202.9521174164631
 30
0.0
 40
2.099999999999999
  0
LINE
  5
E40
330
1A
100
AcDbEntity
  8
MSRI3_6-7
100
AcDbLine
 10
141.3039764999999
 20
202.9521174164631
 30
0.0
 11
149.518263
 21
202.9521174164631
 31
0.0
  0
LINE
  5
E41
330
1A
100
AcDbEntity
  8
4A
100
AcDbLine
 10
58.34058400000003
 20
236.707527916463
 30
0.0
 11
120.340584
 21
236.707527916463
 31
0.0
  0
LINE
  5
E42
330
1A
100
AcDbEntity
  8
4A
100
AcDbLine
 10
58.34058400000003
 20
235.707527416463
 30
0.0
 11
120.340584
 21
235.707527416463
 31
0.0
  0
LINE
  5
E43
330
1A
100
AcDbEntity
  8
4A
100
AcDbLine
 10
120.340584
 20
250.707527416463
 30
0.0
 11
58.34058400000003
 21
250.707527416463
 31
0.0
  0
LINE
  5
E44
330
1A
100
AcDbEntity
  8
4A
100
AcDbLine
 10
120.340584
 20
249.7075284164631
 30
0.0
 11
58.34058400000003
 21
249.707528416463
 31
0.0
  0
LINE
  5
E45
330
1A
100
AcDbEntity
  8
4A
100
AcDbLine
 10
58.34058400000003
 20
250.707527416463
 30
0.0
 11
58.34058400000003
 21
235.707527416463
 31
0.0
  0
LINE
  5
E46
330
1A
100
AcDbEntity
  8
4A
100
AcDbLine
 10
48.34058349999998
 20
249.707528416463
 30
0.0
 11
48.34058349999998
 21
236.707527916463
 31
0.0
  0
LINE
  5
E47
330
1A
100
AcDbEntity
  8
4A
100
AcDbLine
 10
48.34058349999998
 20
236.707527916463
 30
0.0
 11
58.34058400000003
 21
236.707527916463
 31
0.0
  0
LINE
  5
E48
330
1A
100
AcDbEntity
  8
4A
100
AcDbLine
 10
58.34058400000003
 20
249.707528416463
 30
0.0
 11
48.34058349999998
 21
249.707528416463
 31
0.0
  0
LINE
  5
E49
330
1A
100
AcDbEntity
  8
MSRI3_6-0
100
AcDbLine
 10
120.340584
 20
349.7906085
 30
0.0
 11
120.340584
 21
366.685677
 31
0.0
  0
LINE
  5
E4A
330
1A
100
AcDbEntity
  8
MSRI3_6-0
100
AcDbLine
 10
125.3405835
 20
375.525396
 30
0.0
 11
125.3405835
 21
315.525396
 31
0.0
  0
TEXT
  5
E4B
330
1A
100
AcDbEntity
  8
6
100
AcDbText
 10
130.9112943422227
 20
322.2682003777503
 30
0.0
 40
3.5
  1
MSR I3/6
100
AcDbText
  0
CIRCLE
  5
E4C
330
1A
100
AcDbEntity
  8
MSRI3_6-0
100
AcDbCircle
 10
148.340583
 20
345.525396
 30
0.0
 40
7.5
  0
LINE
  5
E4D
330
1A
100
AcDbEntity
  8
MSRI3_6-7
100
AcDbLine
 10
139.218459
 20
345.525396
 30
0.0
 11
157.315959
 21
345.525396
 31
0.0
  0
POLYLINE
  5
E4E
330
1A
100
AcDbEntity
  8
MSRI3_6-0
100
AcDb2dPolyline
 66
     1
 10
0.0
 20
0.0
 30
0.0
  0
VERTEX
  5
E4F
330
E4E
100
AcDbEntity
  8
MSRI3_6-0
  6
Continuous
100
AcDbVertex
100
AcDb2dVertex
 10
141.340584
 20
280.452117916463
 30
0.0
  0
VERTEX
  5
E50
330
E4E
100
AcDbEntity
  8
MSRI3_6-0
  6
Continuous
100
AcDbVertex
100
AcDb2dVertex
 10
135.340584
 20
280.452117916463
 30
0.0
  0
VERTEX
  5
E51
330
E4E
100
AcDbEntity
  8
MSRI3_6-0
  6
Continuous
100
AcDbVertex
100
AcDb2dVertex
 10
135.340584
 20
265.4521179164631
 30
0.0
  0
VERTEX
  5
E52
330
E4E
100
AcDbEntity
  8
MSRI3_6-0
  6
Continuous
100
AcDbVertex
100
AcDb2dVertex
 10
141.340584
 20
265.4521179164631
 30
0.0
  0
SEQEND
  5
E53
330
E4E
100
AcDbEntity
  8
MSRI3_6-0
  0
LINE
  5
E54
330
1A
100
AcDbEntity
  8
MSRI3_6-0
100
AcDbLine
 10
140.9405835
 20
264.4521189164631
 30
0.0
 11
125.3405835
 21
264.4521189164631
 31
0.0
  0
LINE
  5
E55
330
1A
100
AcDbEntity
  8
MSRI3_6-7
100
AcDbLine
 10
114.340584
 20
274.4521179164631
 30
0.0
 11
189.7213694999999
 21
274.4521179164631
 31
0.0
  0
LINE
  5
E56
330
1A
100
AcDbEntity
  8
MSRI3_6-0
100
AcDbLine
 10
102.340584
 20
274.4521179164631
 30
0.0
 11
114.340584
 21
274.4521179164631
 31
0.0
  0
POLYLINE
  5
E57
330
1A
100
AcDbEntity
  8
MSRI3_6-0
100
AcDb2dPolyline
 66
     1
 10
0.0
 20
0.0
 30
0.0
 70
     1
  0
VERTEX
  5
E58
330
E57
100
AcDbEntity
  8
MSRI3_6-0
  6
Continuous
100
AcDbVertex
100
AcDb2dVertex
 10
102.340584
 20
267.952118416463
 30
0.0
  0
VERTEX
  5
E59
330
E57
100
AcDbEntity
  8
MSRI3_6-0
  6
Continuous
100
AcDbVertex
100
AcDb2dVertex
 10
114.340584
 20
267.952118416463
 30
0.0
  0
VERTEX
  5
E5A
330
E57
100
AcDbEntity
  8
MSRI3_6-0
  6
Continuous
100
AcDbVertex
100
AcDb2dVertex
 10
114.340584
 20
280.9521189164631
 30
0.0
  0
VERTEX
  5
E5B
330
E57
100
AcDbEntity
  8
MSRI3_6-0
  6
Continuous
100
AcDbVertex
100
AcDb2dVertex
 10
102.340584
 20
280.9521189164631
 30
0.0
  0
VERTEX
  5
E5C
330
E57
100
AcDbEntity
  8
MSRI3_6-0
  6
Continuous
100
AcDbVertex
100
AcDb2dVertex
 10
102.340584
 20
267.952118416463
 30
0.0
  0
SEQEND
  5
E5D
330
E57
100
AcDbEntity
  8
MSRI3_6-0
  0
LINE
  5
E5E
330
1A
100
AcDbEntity
  8
MSRI3_6-7
100
AcDbLine
 10
99.69090149999999
 20
274.4521179164631
 30
0.0
 11
102.340584
 21
274.4521179164631
 31
0.0
  0
LINE
  5
E5F
330
1A
100
AcDbEntity
  8
MSRI3_6-0
100
AcDbLine
 10
134.3405834999999
 20
264.4521189164631
 30
0.0
 11
134.3405834999999
 21
223.9521174164631
 31
0.0
  0
LINE
  5
E60
330
1A
100
AcDbEntity
  8
MSRI3_6-0
100
AcDbLine
 10
125.3405835
 20
254.442315916463
 30
0.0
 11
120.340584
 21
254.442315916463
 31
0.0
  0
LINE
  5
E61
330
1A
100
AcDbEntity
  8
MSRI3_6-0
100
AcDbLine
 10
120.340584
 20
243.207527416463
 30
0.0
 11
125.3405835
 21
243.207527416463
 31
0.0
  0
LINE
  5
E62
330
1A
100
AcDbEntity
  8
MSRI3_6-0
100
AcDbLine
 10
120.340584
 20
243.207527416463
 30
0.0
 11
125.3405835
 21
243.207527416463
 31
0.0
  0
LINE
  5
E63
330
1A
100
AcDbEntity
  8
MSRI3_6-0
100
AcDbLine
 10
120.340584
 20
248.7820344164631
 30
0.0
 11
125.3405835
 21
248.7820344164631
 31
0.0
  0
LINE
  5
E64
330
1A
100
AcDbEntity
  8
MSRI3_6-0
100
AcDbLine
 10
120.340584
 20
237.6330204164631
 30
0.0
 11
125.3405835
 21
237.6330204164631
 31
0.0
  0
LINE
  5
E65
330
1A
100
AcDbEntity
  8
MSRI3_6-0
100
AcDbLine
 10
125.3405835
 20
231.972740416463
 30
0.0
 11
120.340584
 21
231.972740416463
 31
0.0
  0
LINE
  5
E66
330
1A
100
AcDbEntity
  8
MSRI3_6-0
100
AcDbLine
 10
120.340584
 20
254.442315916463
 30
0.0
 11
120.340584
 21
231.972740416463
 31
0.0
  0
LINE
  5
E67
330
1A
100
AcDbEntity
  8
MSRI3_6-7
100
AcDbLine
 10
129.56478
 20
239.446182916463
 30
0.0
 11
129.56478
 21
231.624755416463
 31
0.0
  0
ARC
  5
E68
330
1A
100
AcDbEntity
  8
MSRI3_6-4
100
AcDbCircle
 10
129.56478
 20
235.707527416463
 30
0.0
 40
2.5
100
AcDbArc
 50
180.0
 51
90.0
  0
CIRCLE
  5
E69
330
1A
100
AcDbEntity
  8
MSRI3_6-0
100
AcDbCircle
 10
129.56478
 20
235.707527416463
 30
0.0
 40
2.099999999999999
  0
LINE
  5
E6A
330
1A
100
AcDbEntity
  8
MSRI3_6-7
100
AcDbLine
 10
125.528172
 20
235.707527416463
 30
0.0
 11
133.7424585
 21
235.707527416463
 31
0.0
  0
LINE
  5
E6B
330
1A
100
AcDbEntity
  8
MSRI3_6-4
100
AcDbLine
 10
114.340584
 20
269.952117916463
 30
0.0
 11
135.340584
 21
269.952117916463
 31
0.0
  0
LINE
  5
E6C
330
1A
100
AcDbEntity
  8
MSRI3_6-4
100
AcDbLine
 10
114.340584
 20
278.9521179164631
 30
0.0
 11
135.340584
 21
278.9521179164631
 31
0.0
  0
LINE
  5
E6D
330
1A
100
AcDbEntity
  8
MSRI3_6-0
100
AcDbLine
 10
135.340584
 20
279.4521189164631
 30
0.0
 11
114.340584
 21
279.4521189164631
 31
0.0
  0
LINE
  5
E6E
330
1A
100
AcDbEntity
  8
MSRI3_6-0
100
AcDbLine
 10
135.340584
 20
269.452118416463
 30
0.0
 11
114.340584
 21
269.452118416463
 31
0.0
  0
POLYLINE
  5
E6F
330
1A
100
AcDbEntity
  8
MSRI3_6-0
100
AcDb2dPolyline
 66
     1
 10
0.0
 20
0.0
 30
0.0
 70
     1
  0
VERTEX
  5
E70
330
E6F
100
AcDbEntity
  8
MSRI3_6-0
  6
Continuous
100
AcDbVertex
100
AcDb2dVertex
 10
102.340584
 20
315.0253965
 30
0.0
  0
VERTEX
  5
E71
330
E6F
100
AcDbEntity
  8
MSRI3_6-0
  6
Continuous
100
AcDbVertex
100
AcDb2dVertex
 10
114.340584
 20
315.0253965
 30
0.0
  0
VERTEX
  5
E72
330
E6F
100
AcDbEntity
  8
MSRI3_6-0
  6
Continuous
100
AcDbVertex
100
AcDb2dVertex
 10
114.340584
 20
330.0253965
 30
0.0
  0
VERTEX
  5
E73
330
E6F
100
AcDbEntity
  8
MSRI3_6-0
  6
Continuous
100
AcDbVertex
100
AcDb2dVertex
 10
102.340584
 20
330.0253965
 30
0.0
  0
VERTEX
  5
E74
330
E6F
100
AcDbEntity
  8
MSRI3_6-0
  6
Continuous
100
AcDbVertex
100
AcDb2dVertex
 10
102.340584
 20
315.0253965
 30
0.0
  0
SEQEND
  5
E75
330
E6F
100
AcDbEntity
  8
MSRI3_6-0
  0
LINE
  5
E76
330
1A
100
AcDbEntity
  8
MSRI3_6-7
100
AcDbLine
 10
99.69090149999999
 20
322.5253965
 30
0.0
 11
126.4127189999999
 21
322.5253965
 31
0.0
  0
LINE
  5
E77
330
1A
100
AcDbEntity
  8
MSRI3_6-0
100
AcDbLine
 10
102.340584
 20
319.0253955000001
 30
0.0
 11
114.340584
 21
319.0253955000001
 31
0.0
  0
LINE
  5
E78
330
1A
100
AcDbEntity
  8
MSRI3_6-0
100
AcDbLine
 10
102.340584
 20
326.025396
 30
0.0
 11
114.340584
 21
326.025396
 31
0.0
  0
LINE
  5
E79
330
1A
100
AcDbEntity
  8
MSRI3_6-0
100
AcDbLine
 10
125.3405835
 20
317.5253955
 30
0.0
 11
114.340584
 21
317.5253955
 31
0.0
  0
LINE
  5
E7A
330
1A
100
AcDbEntity
  8
MSRI3_6-4
100
AcDbLine
 10
114.340584
 20
318.0253964999999
 30
0.0
 11
125.3405835
 21
318.0253964999999
 31
0.0
  0
LINE
  5
E7B
330
1A
100
AcDbEntity
  8
MSRI3_6-0
100
AcDbLine
 10
125.3405835
 20
324.365115
 30
0.0
 11
120.340584
 21
324.365115
 31
0.0
  0
LINE
  5
E7C
330
1A
100
AcDbEntity
  8
MSRI3_6-0
100
AcDbLine
 10
120.340584
 20
330.0253965
 30
0.0
 11
125.3405835
 21
330.0253965
 31
0.0
  0
LINE
  5
E7D
330
1A
100
AcDbEntity
  8
MSRI3_6-0
100
AcDbLine
 10
120.340584
 20
330.0253965
 30
0.0
 11
125.3405835
 21
330.0253965
 31
0.0
  0
LINE
  5
E7E
330
1A
100
AcDbEntity
  8
MSRI3_6-0
100
AcDbLine
 10
125.3405835
 20
341.2601835
 30
0.0
 11
120.340584
 21
341.2601835
 31
0.0
  0
LINE
  5
E7F
330
1A
100
AcDbEntity
  8
MSRI3_6-0
100
AcDbLine
 10
120.340584
 20
335.599902
 30
0.0
 11
125.3405835
 21
335.599902
 31
0.0
  0
LINE
  5
E80
330
1A
100
AcDbEntity
  8
MSRI3_6-0
100
AcDbLine
 10
125.3405835
 20
349.7906085
 30
0.0
 11
120.340584
 21
349.7906085
 31
0.0
  0
LINE
  5
E81
330
1A
100
AcDbEntity
  8
MSRI3_6-0
100
AcDbLine
 10
120.340584
 20
355.45089
 30
0.0
 11
125.3405835
 21
355.45089
 31
0.0
  0
LINE
  5
E82
330
1A
100
AcDbEntity
  8
MSRI3_6-0
100
AcDbLine
 10
120.340584
 20
324.365115
 30
0.0
 11
120.340584
 21
341.2601835
 31
0.0
  0
LINE
  5
E83
330
1A
100
AcDbEntity
  8
MSRI3_6-0
100
AcDbLine
 10
120.340584
 20
327.525396
 30
0.0
 11
114.340584
 21
327.525396
 31
0.0
  0
LINE
  5
E84
330
1A
100
AcDbEntity
  8
MSRI3_6-4
100
AcDbLine
 10
114.340584
 20
327.0253965
 30
0.0
 11
120.340584
 21
327.0253965000001
 31
0.0
  0
LINE
  5
E85
330
1A
100
AcDbEntity
  8
MSRI3_6-2
100
AcDbLine
 10
154.340583
 20
292.9521189164631
 30
0.0
 11
154.340583
 21
280.9521189164631
 31
0.0
  0
LINE
  5
E86
330
1A
100
AcDbEntity
  8
MSRI3_6-7
100
AcDbLine
 10
160.3405829999999
 20
296.0977584164631
 30
0.0
 11
160.3405829999999
 21
280.147757416463
 31
0.0
  0
POLYLINE
  5
E87
330
1A
100
AcDbEntity
  8
MSRI3_6-2
100
AcDb2dPolyline
 66
     1
 10
0.0
 20
0.0
 30
0.0
  0
VERTEX
  5
E88
330
E87
100
AcDbEntity
  8
MSRI3_6-2
  6
Continuous
100
AcDbVertex
100
AcDb2dVertex
 10
203.0405835
 20
280.9521189164631
 30
0.0
  0
VERTEX
  5
E89
330
E87
100
AcDbEntity
  8
MSRI3_6-2
  6
Continuous
100
AcDbVertex
100
AcDb2dVertex
 10
203.0405835
 20
287.452118416463
 30
0.0
  0
VERTEX
  5
E8A
330
E87
100
AcDbEntity
  8
MSRI3_6-2
  6
Continuous
100
AcDbVertex
100
AcDb2dVertex
 10
204.940584
 20
287.452118416463
 30
0.0
  0
VERTEX
  5
E8B
330
E87
100
AcDbEntity
  8
MSRI3_6-2
  6
Continuous
100
AcDbVertex
100
AcDb2dVertex
 10
204.940584
 20
290.852118916463
 30
0.0
  0
VERTEX
  5
E8C
330
E87
100
AcDbEntity
  8
MSRI3_6-2
  6
Continuous
100
AcDbVertex
100
AcDb2dVertex
 10
203.3405835
 20
290.852118916463
 30
0.0
  0
VERTEX
  5
E8D
330
E87
100
AcDbEntity
  8
MSRI3_6-2
  6
Continuous
100
AcDbVertex
100
AcDb2dVertex
 10
203.3405835
 20
292.9521189164631
 30
0.0
  0
SEQEND
  5
E8E
330
E87
100
AcDbEntity
  8
MSRI3_6-2
  0
INSERT
  5
E8F
330
1A
100
AcDbEntity
  8
MSRI3_6-8
100
AcDbBlockReference
  2
*X1
 10
0.0
 20
36.42915991646305
 30
0.0
1001
GENIUS_GENODEF_13
1002
{
1000
HIER
1070
     0
1002
}
1002
{
1000
MANEDIT
1070
     0
1002
}
1002
{
1000
NOSEL
1070
     0
1002
}
1002
{
1000
BEHIND
1070
     0
1002
}
1002
{
1000
REACTOR
1002
}
1001
GENIUS_GENOBJ-N-HTC_13
1002
{
1000
OWNER
1000
GEN
1002
}
1001
GENIUS_GENHATCH_13
1002
{
1000
DATA
1040
45.0
1042
2.5
1000
_U
1070
     0
1011
199.3820971666918
1021
286.7789952628622
1031
0.0
1002
}
1002
{
1000
UCS
1010
0.0
1020
0.0
1030
0.0
1010
1.0
1020
0.0
1030
0.0
1010
0.0
1020
1.0
1030
0.0
1002
}
1001
ACAD
1000
HATCH
1002
{
1070
    19
1000
_U
1040
2.5
1040
0.7853981633974483
1070
     0
1002
}
  0
LINE
  5
E90
330
1A
100
AcDbEntity
  8
MSRI3_6-4
100
AcDbLine
 10
204.3405845
 20
290.852118916463
 30
0.0
 11
204.3405845
 21
287.452118416463
 31
0.0
  0
LINE
  5
E91
330
1A
100
AcDbEntity
  8
MSRI3_6-4
100
AcDbLine
 10
194.7889385521325
 20
287.1852168881117
 30
0.0
 11
195.6425344364257
 21
290.02876804658
 31
0.0
  0
LINE
  5
E92
330
1A
100
AcDbEntity
  8
MSRI3_6-2
100
AcDbLine
 10
154.340583
 20
280.9521189164631
 30
0.0
 11
184.340583
 21
280.9521189164631
 31
0.0
  0
LINE
  5
E93
330
1A
100
AcDbEntity
  8
MSRI3_6-2
100
AcDbLine
 10
154.840584
 20
268.9521189164631
 30
0.0
 11
184.340583
 21
268.9521189164631
 31
0.0
  0
LINE
  5
E94
330
1A
100
AcDbEntity
  8
MSRI3_6-4
100
AcDbLine
 10
153.340584
 20
269.952117916463
 30
0.0
 11
186.4189035
 21
269.952117916463
 31
0.0
  0
LINE
  5
E95
330
1A
100
AcDbEntity
  8
MSRI3_6-4
100
AcDbLine
 10
153.340584
 20
278.9521179164631
 30
0.0
 11
186.4189035
 21
278.9521179164631
 31
0.0
  0
LINE
  5
E96
330
1A
100
AcDbEntity
  8
MSRI3_6-0
100
AcDbLine
 10
186.4189035
 20
279.4521189164631
 30
0.0
 11
153.340584
 21
279.4521189164631
 31
0.0
  0
LINE
  5
E97
330
1A
100
AcDbEntity
  8
MSRI3_6-0
100
AcDbLine
 10
186.4189035
 20
269.452118416463
 30
0.0
 11
153.340584
 21
269.452118416463
 31
0.0
  0
LINE
  5
E98
330
1A
100
AcDbEntity
  8
MSRI3_6-0
100
AcDbLine
 10
153.340584
 20
280.452117916463
 30
0.0
 11
153.340584
 21
264.952118416463
 31
0.0
  0
LINE
  5
E99
330
1A
100
AcDbEntity
  8
MSRI3_6-0
100
AcDbLine
 10
141.340584
 20
280.452117916463
 30
0.0
 11
141.340584
 21
264.852117916463
 31
0.0
  0
ARC
  5
E9A
330
1A
100
AcDbEntity
  8
MSRI3_6-0
100
AcDbCircle
 10
140.9405835
 20
264.852117916463
 30
0.0
 40
0.4000005
100
AcDbArc
 50
270.000003
 51
0.0
  0
LINE
  5
E9B
330
1A
100
AcDbEntity
  8
MSRI3_6-2
100
AcDbLine
 10
154.840584
 20
268.9521189164631
 30
0.0
 11
154.840584
 21
262.9521189164631
 31
0.0
  0
ARC
  5
E9C
330
1A
100
AcDbEntity
  8
MSRI3_6-0
100
AcDbCircle
 10
155.840583
 20
264.952118416463
 30
0.0
 40
2.500000499999999
100
AcDbArc
 50
180.0000029999999
 51
270.000003
  0
LINE
  5
E9D
330
1A
100
AcDbEntity
  8
MSRI3_6-0
100
AcDbLine
 10
153.340584
 20
280.452117916463
 30
0.0
 11
141.340584
 21
280.452117916463
 31
0.0
  0
LINE
  5
E9E
330
1A
100
AcDbEntity
  8
MSRI3_6-2
100
AcDbLine
 10
165.8405835
 20
262.9521189164631
 30
0.0
 11
165.8405835
 21
262.4521179164631
 31
0.0
  0
LINE
  5
E9F
330
1A
100
AcDbEntity
  8
MSRI3_6-2
100
AcDbLine
 10
168.940584
 20
269.452118416463
 30
0.0
 11
168.940584
 21
268.9521189164631
 31
0.0
  0
LINE
  5
EA0
330
1A
100
AcDbEntity
  8
MSRI3_6-2
100
AcDbLine
 10
168.940584
 20
280.9521189164631
 30
0.0
 11
168.940584
 21
279.4521189164631
 31
0.0
  0
LINE
  5
EA1
330
1A
100
AcDbEntity
  8
MSRI3_6-0
100
AcDbLine
 10
187.418904
 20
270.4521189164631
 30
0.0
 11
187.418904
 21
278.452118416463
 31
0.0
  0
LINE
  5
EA2
330
1A
100
AcDbEntity
  8
MSRI3_6-0
100
AcDbLine
 10
186.4189035
 20
279.4521189164631
 30
0.0
 11
186.4189035
 21
269.452118416463
 31
0.0
  0
LINE
  5
EA3
330
1A
100
AcDbEntity
  8
MSRI3_6-0
100
AcDbLine
 10
187.418904
 20
270.4521189164631
 30
0.0
 11
186.4189035
 21
270.4521189164631
 31
0.0
  0
LINE
  5
EA4
330
1A
100
AcDbEntity
  8
MSRI3_6-0
100
AcDbLine
 10
187.418904
 20
278.452118416463
 30
0.0
 11
186.4189035
 21
278.452118416463
 31
0.0
  0
LINE
  5
EA5
330
1A
100
AcDbEntity
  8
MSRI3_6-2
100
AcDbLine
 10
199.7405834999999
 20
280.9521189164631
 30
0.0
 11
199.7405834999999
 21
268.9521189164631
 31
0.0
  0
LINE
  5
EA6
330
1A
100
AcDbEntity
  8
MSRI3_6-2
100
AcDbLine
 10
200.9639805
 20
268.9521189164631
 30
0.0
 11
200.9639805
 21
280.9521189164631
 31
0.0
  0
LINE
  5
EA7
330
1A
100
AcDbEntity
  8
MSRI3_6-2
100
AcDbLine
 10
202.840584
 20
262.9521189164631
 30
0.0
 11
202.840584
 21
262.4521179164631
 31
0.0
  0
LINE
  5
EA8
330
1A
100
AcDbEntity
  8
MSRI3_6-4
100
AcDbLine
 10
195.1547653341669
 20
280.9521189164631
 30
0.0
 11
194.4231117700982
 21
284.6666429752734
 31
0.0
  0
LINE
  5
EA9
330
1A
100
AcDbEntity
  8
MSRI3_6-4
100
AcDbLine
 10
194.4231117700982
 20
284.6666429752734
 30
0.0
 11
194.7889385521325
 21
287.1852168881117
 31
0.0
  0
CIRCLE
  5
EAA
330
1A
100
AcDbEntity
  8
MSRI3_6-0
100
AcDbCircle
 10
164.3405835
 20
325.5253965
 30
0.0
 40
2.500000499999999
  0
ARC
  5
EAB
330
1A
100
AcDbEntity
  8
MSRI3_6-4
100
AcDbCircle
 10
164.3405835
 20
325.5253965
 30
0.0
 40
3.0
100
AcDbArc
 50
180.0
 51
90.0
  0
LINE
  5
EAC
330
1A
100
AcDbEntity
  8
MSRI3_6-7
100
AcDbLine
 10
164.3405835
 20
330.877368
 30
0.0
 11
164.3405835
 21
320.358138
 31
0.0
  0
INSERT
  5
EAD
330
1A
100
AcDbEntity
  8
MSRI3_6-0N
100
AcDbBlockReference
 66
     1
  2
GENINF13
 10
155.4489261072258
 20
324.5520535414415
 30
0.0
1001
GENIUS_GENSCSYM_13
1002
{
1000
INSPT
1011
155.4489261072258
1021
324.5520535414415
1031
0.0
1002
}
1002
{
1000
SCALE
1042
1.0
1002
}
1002
{
1000
USEOLDBPT
1070
     0
1002
}
1001
GENIUS_GENOBJ-N-INFOPT_13
1002
{
1000
OWNER
1000
GEN
1002
}
1001
GENIUS_GENSYMENT_13
1002
{
1000
ENT
1005
EAD
1002
}
1001
GENIUS_GENODEF_13
1002
{
1000
HIER
1070
     0
1002
}
1002
{
1000
MANEDIT
1070
     0
1002
}
1002
{
1000
NOSEL
1070
     0
1002
}
1002
{
1000
BEHIND
1070
     0
1002
}
1002
{
1000
REACTOR
1002
}
1001
GENIUS_GENOBJ-N-RSSYM_13
1002
{
1000
OWNER
1000
GEN
1002
}
1001
GENIUS_GENINF13_13
1070
     1
  0
ATTRIB
  5
EAE
330
EAD
100
AcDbEntity
  8
INFO
100
AcDbText
 10
155.4489261072258
 20
324.5520535414415
 30
0.0
 40
1.0
  1
1
100
AcDbAttribute
  2
2GENINF
 70
     1
  0
ATTRIB
  5
EAF
330
EAD
100
AcDbEntity
  8
INFO
100
AcDbText
 10
155.4489261072258
 20
323.0520535414415
 30
0.0
 40
1.0
  1
<***aktuell***>
100
AcDbAttribute
  2
3GENINF
 70
     1
  0
ATTRIB
  5
EB0
330
EAD
100
AcDbEntity
  8
INFO
100
AcDbText
 10
155.4489261072258
 20
321.5520535414415
 30
0.0
 40
1.0
  1

100
AcDbAttribute
  2
4GENINF
 70
     1
  0
ATTRIB
  5
EB1
330
EAD
100
AcDbEntity
  8
INFO
100
AcDbText
 10
155.4489261072258
 20
320.0520535414415
 30
0.0
 40
1.0
  1
MSR I-3/6
100
AcDbAttribute
  2
5GENINF
 70
     1
  0
ATTRIB
  5
EB2
330
EAD
100
AcDbEntity
  8
INFO
100
AcDbText
 10
155.4489261072258
 20
318.5520535414415
 30
0.0
 40
1.0
  1

100
AcDbAttribute
  2
6GENINF
 70
     1
  0
ATTRIB
  5
EB3
330
EAD
100
AcDbEntity
  8
INFO
100
AcDbText
 10
155.4489261072258
 20
317.0520535414415
 30
0.0
 40
1.0
  1
Fa. Mayer
100
AcDbAttribute
  2
7GENINF
 70
     1
  0
ATTRIB
  5
EB4
330
EAD
100
AcDbEntity
  8
INFO
100
AcDbText
 10
155.4489261072258
 20
315.5520535414415
 30
0.0
 40
1.0
  1

100
AcDbAttribute
  2
8GENINF
 70
     1
  0
ATTRIB
  5
EB5
330
EAD
100
AcDbEntity
  8
INFO
100
AcDbText
 10
155.4489261072258
 20
314.0520535414415
 30
0.0
 40
1.0
  1

100
AcDbAttribute
  2
9GENINF
 70
     1
  0
ATTRIB
  5
EB6
330
EAD
100
AcDbEntity
  8
INFO
100
AcDbText
 10
155.4489261072258
 20
312.5520535414415
 30
0.0
 40
1.0
  1

100
AcDbAttribute
  2
10GENINF
 70
     1
  0
ATTRIB
  5
EB7
330
EAD
100
AcDbEntity
  8
INFO
100
AcDbText
 10
155.4489261072258
 20
311.0520535414415
 30
0.0
 40
1.0
  1

100
AcDbAttribute
  2
11GENINF
 70
     1
  0
ATTRIB
  5
EB8
330
EAD
100
AcDbEntity
  8
INFO
100
AcDbText
 10
155.4489261072258
 20
309.5520535414415
 30
0.0
 40
1.0
  1

100
AcDbAttribute
  2
12GENINF
 70
     1
  0
ATTRIB
  5
EB9
330
EAD
100
AcDbEntity
  8
INFO
100
AcDbText
 10
155.4489261072258
 20
308.0520535414415
 30
0.0
 40
1.0
  1

100
AcDbAttribute
  2
13GENINF
 70
     1
  0
ATTRIB
  5
EBA
330
EAD
100
AcDbEntity
  8
INFO
100
AcDbText
 10
155.4489261072258
 20
306.5520535414415
 30
0.0
 40
1.0
  1

100
AcDbAttribute
  2
14GENINF
 70
     1
  0
ATTRIB
  5
EBB
330
EAD
100
AcDbEntity
  8
INFO
100
AcDbText
 10
155.4489261072258
 20
305.0520535414415
 30
0.0
 40
1.0
  1

100
AcDbAttribute
  2
15GENINF
 70
     1
  0
ATTRIB
  5
EBC
330
EAD
100
AcDbEntity
  8
INFO
100
AcDbText
 10
155.4489261072258
 20
303.5520535414415
 30
0.0
 40
1.0
  1

100
AcDbAttribute
  2
16GENINF
 70
     1
  0
ATTRIB
  5
EBD
330
EAD
100
AcDbEntity
  8
INFO
100
AcDbText
 10
155.4489261072258
 20
302.0520535414415
 30
0.0
 40
1.0
  1

100
AcDbAttribute
  2
17GENINF
 70
     1
  0
ATTRIB
  5
EBE
330
EAD
100
AcDbEntity
  8
INFO
100
AcDbText
 10
155.4489261072258
 20
300.5520535414415
 30
0.0
 40
1.0
  1

100
AcDbAttribute
  2
18GENINF
 70
     1
  0
ATTRIB
  5
EBF
330
EAD
100
AcDbEntity
  8
INFO
100
AcDbText
 10
155.4489261072258
 20
299.0520535414415
 30
0.0
 40
1.0
  1

100
AcDbAttribute
  2
19GENINF
 70
     1
  0
ATTRIB
  5
EC0
330
EAD
100
AcDbEntity
  8
INFO
100
AcDbText
 10
155.4489261072258
 20
297.5520535414415
 30
0.0
 40
1.0
  1

100
AcDbAttribute
  2
20GENINF
 70
     1
  0
ATTRIB
  5
EC1
330
EAD
100
AcDbEntity
  8
INFO
100
AcDbText
 10
155.4489261072258
 20
296.0520535414415
 30
0.0
 40
1.0
  1

100
AcDbAttribute
  2
21GENINF
 70
     1
  0
ATTRIB
  5
EC2
330
EAD
100
AcDbEntity
  8
INFO
100
AcDbText
 10
155.4489261072258
 20
294.5520535414415
 30
0.0
 40
1.0
  1

100
AcDbAttribute
  2
22GENINF
 70
     1
  0
ATTRIB
  5
EC3
330
EAD
100
AcDbEntity
  8
INFO
100
AcDbText
 10
155.4489261072258
 20
293.0520535414416
 30
0.0
 40
1.0
  1

100
AcDbAttribute
  2
23GENINF
 70
     1
  0
ATTRIB
  5
EC4
330
EAD
100
AcDbEntity
  8
INFO
100
AcDbText
 10
155.4489261072258
 20
291.5520535414415
 30
0.0
 40
1.0
  1

100
AcDbAttribute
  2
24GENINF
 70
     1
  0
ATTRIB
  5
EC5
330
EAD
100
AcDbEntity
  8
INFO
100
AcDbText
 10
155.4489261072258
 20
290.0520535414415
 30
0.0
 40
1.0
  1

100
AcDbAttribute
  2
0GENINF
 70
     1
  0
SEQEND
  5
EC6
330
EAD
100
AcDbEntity
  8
MSRI3_6-0N
  0
CIRCLE
  5
EC7
330
1A
100
AcDbEntity
  8
MSRI3_6-0
100
AcDbCircle
 10
148.340583
 20
345.525396
 30
0.0
 40
6.499999500000001
  0
LINE
  5
EC8
330
1A
100
AcDbEntity
  8
MSRI3_6-7
100
AcDbLine
 10
148.340583
 20
355.524936
 30
0.0
 11
148.340583
 21
336.3558735
 31
0.0
  0
POLYLINE
  5
EC9
330
1A
100
AcDbEntity
  8
MSRI3_6-0
100
AcDb2dPolyline
 66
     1
 10
0.0
 20
0.0
 30
0.0
 70
     1
  0
VERTEX
  5
ECA
330
EC9
100
AcDbEntity
  8
MSRI3_6-0
  6
Continuous
100
AcDbVertex
100
AcDb2dVertex
 10
146.608533
 20
342.525396
 30
0.0
  0
VERTEX
  5
ECB
330
EC9
100
AcDbEntity
  8
MSRI3_6-0
  6
Continuous
100
AcDbVertex
100
AcDb2dVertex
 10
144.8764815
 20
345.525396
 30
0.0
  0
VERTEX
  5
ECC
330
EC9
100
AcDbEntity
  8
MSRI3_6-0
  6
Continuous
100
AcDbVertex
100
AcDb2dVertex
 10
146.608533
 20
348.525396
 30
0.0
  0
VERTEX
  5
ECD
330
EC9
100
AcDbEntity
  8
MSRI3_6-0
  6
Continuous
100
AcDbVertex
100
AcDb2dVertex
 10
150.0726345
 20
348.525396
 30
0.0
  0
VERTEX
  5
ECE
330
EC9
100
AcDbEntity
  8
MSRI3_6-0
  6
Continuous
100
AcDbVertex
100
AcDb2dVertex
 10
151.804686
 20
345.525396
 30
0.0
  0
VERTEX
  5
ECF
330
EC9
100
AcDbEntity
  8
MSRI3_6-0
  6
Continuous
100
AcDbVertex
100
AcDb2dVertex
 10
150.0726345
 20
342.525396
 30
0.0
  0
VERTEX
  5
ED0
330
EC9
100
AcDbEntity
  8
MSRI3_6-0
  6
Continuous
100
AcDbVertex
100
AcDb2dVertex
 10
146.608533
 20
342.525396
 30
0.0
  0
SEQEND
  5
ED1
330
EC9
100
AcDbEntity
  8
MSRI3_6-0
  0
LINE
  5
ED2
330
1A
100
AcDbEntity
  8
MSRI3_6-7
100
AcDbLine
 10
164.3405835
 20
350.877369
 30
0.0
 11
164.3405835
 21
340.3581375
 31
0.0
  0
LINE
  5
ED3
330
1A
100
AcDbEntity
  8
MSRI3_6-7
100
AcDbLine
 10
158.648433
 20
325.5253965
 30
0.0
 11
169.8599715
 21
325.5253965
 31
0.0
  0
CIRCLE
  5
ED4
330
1A
100
AcDbEntity
  8
MSRI3_6-0
100
AcDbCircle
 10
164.3405835
 20
345.525396
 30
0.0
 40
3.0
  0
LINE
  5
ED5
330
1A
100
AcDbEntity
  8
MSRI3_6-7
100
AcDbLine
 10
158.648433
 20
345.525396
 30
0.0
 11
169.8599715
 21
345.525396
 31
0.0
  0
LINE
  5
ED6
330
1A
100
AcDbEntity
  8
MSRI3_6-7
100
AcDbLine
 10
204.340584
 20
330.877368
 30
0.0
 11
204.340584
 21
320.358138
 31
0.0
  0
LINE
  5
ED7
330
1A
100
AcDbEntity
  8
MSRI3_6-4
100
AcDbLine
 10
195.6425344364257
 20
290.02876804658
 30
0.0
 11
195.2157364942791
 21
291.7348987634889
 31
0.0
  0
LINE
  5
ED8
330
1A
100
AcDbEntity
  8
MSRI3_6-4
100
AcDbLine
 10
195.2157364942791
 20
291.7348987634889
 30
0.0
 11
195.9677138081584
 21
292.9521189164631
 31
0.0
  0
LINE
  5
ED9
330
1A
100
AcDbEntity
  8
MSRI3_6-7
100
AcDbLine
 10
176.545119
 20
345.525396
 30
0.0
 11
191.2294935
 21
345.525396
 31
0.0
  0
LINE
  5
EDA
330
1A
100
AcDbEntity
  8
MSRI3_6-7
100
AcDbLine
 10
184.340583
 20
354.229233
 30
0.0
 11
184.340583
 21
337.3903935
 31
0.0
  0
LINE
  5
EDB
330
1A
100
AcDbEntity
  8
MSRI3_6-7
100
AcDbLine
 10
204.340584
 20
350.877369
 30
0.0
 11
204.340584
 21
340.3581375
 31
0.0
  0
LINE
  5
EDC
330
1A
100
AcDbEntity
  8
MSRI3_6-7
100
AcDbLine
 10
99.69090149999999
 20
368.5253955000001
 30
0.0
 11
126.4127189999999
 21
368.5253955000001
 31
0.0
  0
POLYLINE
  5
EDD
330
1A
100
AcDbEntity
  8
MSRI3_6-0
100
AcDb2dPolyline
 66
     1
 10
0.0
 20
0.0
 30
0.0
 70
     1
  0
VERTEX
  5
EDE
330
EDD
100
AcDbEntity
  8
MSRI3_6-0
  6
Continuous
100
AcDbVertex
100
AcDb2dVertex
 10
102.340584
 20
361.0253955000001
 30
0.0
  0
VERTEX
  5
EDF
330
EDD
100
AcDbEntity
  8
MSRI3_6-0
  6
Continuous
100
AcDbVertex
100
AcDb2dVertex
 10
114.340584
 20
361.0253955000001
 30
0.0
  0
VERTEX
  5
EE0
330
EDD
100
AcDbEntity
  8
MSRI3_6-0
  6
Continuous
100
AcDbVertex
100
AcDb2dVertex
 10
114.340584
 20
376.0253955
 30
0.0
  0
VERTEX
  5
EE1
330
EDD
100
AcDbEntity
  8
MSRI3_6-0
  6
Continuous
100
AcDbVertex
100
AcDb2dVertex
 10
102.340584
 20
376.0253955
 30
0.0
  0
VERTEX
  5
EE2
330
EDD
100
AcDbEntity
  8
MSRI3_6-0
  6
Continuous
100
AcDbVertex
100
AcDb2dVertex
 10
102.340584
 20
361.0253955000001
 30
0.0
  0
SEQEND
  5
EE3
330
EDD
100
AcDbEntity
  8
MSRI3_6-0
  0
LINE
  5
EE4
330
1A
100
AcDbEntity
  8
MSRI3_6-0
100
AcDbLine
 10
102.340584
 20
365.025396
 30
0.0
 11
114.340584
 21
365.025396
 31
0.0
  0
LINE
  5
EE5
330
1A
100
AcDbEntity
  8
MSRI3_6-0
100
AcDbLine
 10
102.340584
 20
372.0253965
 30
0.0
 11
114.340584
 21
372.0253965
 31
0.0
  0
LINE
  5
EE6
330
1A
100
AcDbEntity
  8
MSRI3_6-0
100
AcDbLine
 10
125.3405835
 20
373.5253965
 30
0.0
 11
114.340584
 21
373.5253965
 31
0.0
  0
LINE
  5
EE7
330
1A
100
AcDbEntity
  8
MSRI3_6-4
100
AcDbLine
 10
114.340584
 20
373.0253955000001
 30
0.0
 11
125.3405835
 21
373.0253955000001
 31
0.0
  0
LINE
  5
EE8
330
1A
100
AcDbEntity
  8
MSRI3_6-0
100
AcDbLine
 10
120.340584
 20
361.0253955000001
 30
0.0
 11
125.3405835
 21
361.0253955000001
 31
0.0
  0
LINE
  5
EE9
330
1A
100
AcDbEntity
  8
MSRI3_6-0
100
AcDbLine
 10
120.340584
 20
361.0253955000001
 30
0.0
 11
125.3405835
 21
361.0253955000001
 31
0.0
  0
LINE
  5
EEA
330
1A
100
AcDbEntity
  8
MSRI3_6-0
100
AcDbLine
 10
125.3405835
 20
366.685677
 30
0.0
 11
120.340584
 21
366.685677
 31
0.0
  0
LINE
  5
EEB
330
1A
100
AcDbEntity
  8
MSRI3_6-0
100
AcDbLine
 10
120.340584
 20
363.525396
 30
0.0
 11
114.340584
 21
363.525396
 31
0.0
  0
LINE
  5
EEC
330
1A
100
AcDbEntity
  8
MSRI3_6-4
100
AcDbLine
 10
114.340584
 20
364.0253955
 30
0.0
 11
120.340584
 21
364.0253954999999
 31
0.0
  0
CIRCLE
  5
EED
330
1A
100
AcDbEntity
  8
MSRI3_6-0
100
AcDbCircle
 10
164.3405835
 20
365.5253955
 30
0.0
 40
2.500000499999999
  0
ARC
  5
EEE
330
1A
100
AcDbEntity
  8
MSRI3_6-4
100
AcDbCircle
 10
164.3405835
 20
365.5253955
 30
0.0
 40
3.0
100
AcDbArc
 50
180.0
 51
90.0
  0
LINE
  5
EEF
330
1A
100
AcDbEntity
  8
MSRI3_6-7
100
AcDbLine
 10
158.648433
 20
365.5253955
 30
0.0
 11
169.8599715
 21
365.5253955
 31
0.0
  0
LINE
  5
EF0
330
1A
100
AcDbEntity
  8
MSRI3_6-7
100
AcDbLine
 10
164.3405835
 20
370.8773685
 30
0.0
 11
164.3405835
 21
360.3581385
 31
0.0
  0
LINE
  5
EF1
330
1A
100
AcDbEntity
  8
MSRI3_6-7
100
AcDbLine
 10
204.340584
 20
370.8773685
 30
0.0
 11
204.340584
 21
360.3581385
 31
0.0
  0
LINE
  5
EF2
330
1A
100
AcDbEntity
  8
MSRI3_6-0
100
AcDbLine
 10
290.168541
 20
269.5054809164631
 30
0.0
 11
290.168541
 21
196.952117416463
 31
0.0
  0
LINE
  5
EF3
330
1A
100
AcDbEntity
  8
MSRI3_6-0
100
AcDbLine
 10
350.1685425000001
 20
269.5054809164631
 30
0.0
 11
350.1685425000001
 21
196.952117416463
 31
0.0
  0
LINE
  5
EF4
330
1A
100
AcDbEntity
  8
MSRI3_6-0
100
AcDbLine
 10
234.840584
 20
262.4521179164631
 30
0.0
 11
234.840584
 21
196.952117416463
 31
0.0
  0
LINE
  5
EF5
330
1A
100
AcDbEntity
  8
MSRI3_6-3
100
AcDbLine
 10
206.8405845
 20
223.9521174164631
 30
0.0
 11
206.8405845
 21
196.952117416463
 31
0.0
  0
LINE
  5
EF6
330
1A
100
AcDbEntity
  8
MSRI3_6-3
100
AcDbLine
 10
207.340584
 20
223.9521174164631
 30
0.0
 11
207.340584
 21
196.952117416463
 31
0.0
  0
LINE
  5
EF7
330
1A
100
AcDbEntity
  8
MSRI3_6-7
100
AcDbLine
 10
311.1685425
 20
221.690772916463
 30
0.0
 11
311.1685425
 21
213.8693454164631
 31
0.0
  0
LINE
  5
EF8
330
1A
100
AcDbEntity
  8
MSRI3_6-7
100
AcDbLine
 10
329.1685425000001
 20
221.690772916463
 30
0.0
 11
329.1685425000001
 21
213.8693454164631
 31
0.0
  0
ARC
  5
EF9
330
1A
100
AcDbEntity
  8
MSRI3_6-4
100
AcDbCircle
 10
311.1685425
 20
217.952117416463
 30
0.0
 40
2.5
100
AcDbArc
 50
180.0
 51
90.0
  0
ARC
  5
EFA
330
1A
100
AcDbEntity
  8
MSRI3_6-4
100
AcDbCircle
 10
329.1685425000001
 20
217.952117416463
 30
0.0
 40
2.5
100
AcDbArc
 50
180.0
 51
90.0
  0
LINE
  5
EFB
330
1A
100
AcDbEntity
  8
MSRI3_6-7
100
AcDbLine
 10
325.1319345
 20
217.952117416463
 30
0.0
 11
333.346221
 21
217.952117416463
 31
0.0
  0
LINE
  5
EFC
330
1A
100
AcDbEntity
  8
MSRI3_6-7
100
AcDbLine
 10
325.1319345
 20
202.9521174164631
 30
0.0
 11
333.346221
 21
202.9521174164631
 31
0.0
  0
LINE
  5
EFD
330
1A
100
AcDbEntity
  8
MSRI3_6-0
100
AcDbLine
 10
290.168541
 20
196.952117416463
 30
0.0
 11
350.1685425000001
 21
196.952117416463
 31
0.0
  0
LINE
  5
EFE
330
1A
100
AcDbEntity
  8
MSRI3_6-0
100
AcDbLine
 10
234.840584
 20
109.0373901660282
 30
0.0
 11
234.840584
 21
169.0373916660282
 31
0.0
  0
LINE
  5
EFF
330
1A
100
AcDbEntity
  8
MSRI3_6-2
100
AcDbLine
 10
214.3405845
 20
109.0373901660282
 30
0.0
 11
214.3405845
 21
169.0373916660282
 31
0.0
  0
LINE
  5
F00
330
1A
100
AcDbEntity
  8
MSRI3_6-0
100
AcDbLine
 10
240.340584
 20
109.0373901660282
 30
0.0
 11
240.340584
 21
169.0373916660282
 31
0.0
  0
LINE
  5
F01
330
1A
100
AcDbEntity
  8
MSRI3_6-0
100
AcDbLine
 10
240.340584
 20
109.0373901660282
 30
0.0
 11
214.3405845
 21
109.0373901660282
 31
0.0
  0
LINE
  5
F02
330
1A
100
AcDbEntity
  8
MSRI3_6-7
100
AcDbLine
 10
208.3405845
 20
124.1707476660282
 30
0.0
 11
208.3405845
 21
105.9889281660282
 31
0.0
1001
GENIUS_GENOREF_13
1005
1002
  0
LINE
  5
F03
330
1A
100
AcDbEntity
  8
MSRI3_6-7
100
AcDbLine
 10
208.4000805
 20
123.5373906660282
 30
0.0
 11
217.685796
 21
123.5373906660282
 31
0.0
  0
LINE
  5
F04
330
1A
100
AcDbEntity
  8
MSRI3_6-3
100
AcDbLine
 10
209.5058085
 20
121.0373901660282
 30
0.0
 11
214.3405845
 21
121.0373901660282
 31
0.0
  0
LINE
  5
F05
330
1A
100
AcDbEntity
  8
MSRI3_6-3
100
AcDbLine
 10
209.5058085
 20
121.4373906660282
 30
0.0
 11
214.3405845
 21
121.4373906660282
 31
0.0
  0
LINE
  5
F06
330
1A
100
AcDbEntity
  8
MSRI3_6-3
100
AcDbLine
 10
209.5058085
 20
125.6373906660282
 30
0.0
 11
214.3405845
 21
125.6373906660282
 31
0.0
  0
LINE
  5
F07
330
1A
100
AcDbEntity
  8
MSRI3_6-3
100
AcDbLine
 10
209.5058085
 20
126.0373911660282
 30
0.0
 11
214.3405845
 21
126.0373911660282
 31
0.0
  0
LINE
  5
F08
330
1A
100
AcDbEntity
  8
MSRI3_6-7
100
AcDbLine
 10
208.4000805
 20
139.0373916660282
 30
0.0
 11
217.685796
 21
139.0373916660282
 31
0.0
  0
LINE
  5
F09
330
1A
100
AcDbEntity
  8
MSRI3_6-3
100
AcDbLine
 10
209.5058085
 20
136.5373911660282
 30
0.0
 11
214.3405845
 21
136.5373911660282
 31
0.0
  0
LINE
  5
F0A
330
1A
100
AcDbEntity
  8
MSRI3_6-3
100
AcDbLine
 10
209.5058085
 20
136.9373916660282
 30
0.0
 11
214.3405845
 21
136.9373916660282
 31
0.0
  0
LINE
  5
F0B
330
1A
100
AcDbEntity
  8
MSRI3_6-3
100
AcDbLine
 10
209.5058085
 20
141.5373906660282
 30
0.0
 11
214.3405845
 21
141.5373906660282
 31
0.0
  0
LINE
  5
F0C
330
1A
100
AcDbEntity
  8
MSRI3_6-3
100
AcDbLine
 10
209.5058085
 20
141.1373916660282
 30
0.0
 11
214.3405845
 21
141.1373916660282
 31
0.0
  0
LINE
  5
F0D
330
1A
100
AcDbEntity
  8
MSRI3_6-0
100
AcDbLine
 10
240.340584
 20
169.0373916660282
 30
0.0
 11
214.3405845
 21
169.0373916660282
 31
0.0
  0
LINE
  5
F0E
330
1A
100
AcDbEntity
  8
MSRI3_6-7
100
AcDbLine
 10
208.3405845
 20
172.1707476660282
 30
0.0
 11
208.3405845
 21
153.9889296660282
 31
0.0
1001
GENIUS_GENOREF_13
1005
1001
  0
LINE
  5
F0F
330
1A
100
AcDbEntity
  8
MSRI3_6-3
100
AcDbLine
 10
209.5058085
 20
152.0373906660282
 30
0.0
 11
214.3405845
 21
152.0373906660282
 31
0.0
  0
LINE
  5
F10
330
1A
100
AcDbEntity
  8
MSRI3_6-7
100
AcDbLine
 10
208.4000805
 20
154.5373911660282
 30
0.0
 11
217.685796
 21
154.5373911660282
 31
0.0
  0
LINE
  5
F11
330
1A
100
AcDbEntity
  8
MSRI3_6-3
100
AcDbLine
 10
209.5058085
 20
152.4373911660282
 30
0.0
 11
214.3405845
 21
152.4373911660282
 31
0.0
  0
LINE
  5
F12
330
1A
100
AcDbEntity
  8
MSRI3_6-3
100
AcDbLine
 10
209.5058085
 20
156.6373911660282
 30
0.0
 11
214.3405845
 21
156.6373911660282
 31
0.0
  0
LINE
  5
F13
330
1A
100
AcDbEntity
  8
MSRI3_6-3
100
AcDbLine
 10
209.5058085
 20
157.0373916660282
 30
0.0
 11
214.3405845
 21
157.0373916660282
 31
0.0
  0
CIRCLE
  5
F14
330
1A
100
AcDbEntity
  8
MSRI3_6-0
100
AcDbCircle
 10
295.168542
 20
210.452117416463
 30
0.0
 40
2.099999999999999
  0
LINE
  5
F15
330
1A
100
AcDbEntity
  8
MSRI3_6-7
100
AcDbLine
 10
291.1319355000001
 20
210.452117416463
 30
0.0
 11
299.3462205
 21
210.452117416463
 31
0.0
  0
ARC
  5
F16
330
1A
100
AcDbEntity
  8
MSRI3_6-4
100
AcDbCircle
 10
295.168542
 20
210.452117416463
 30
0.0
 40
2.5
100
AcDbArc
 50
180.0
 51
90.0
  0
LINE
  5
F17
330
1A
100
AcDbEntity
  8
MSRI3_6-7
100
AcDbLine
 10
295.168542
 20
214.190772916463
 30
0.0
 11
295.168542
 21
206.3693454164631
 31
0.0
  0
ARC
  5
F18
330
1A
100
AcDbEntity
  8
MSRI3_6-4
100
AcDbCircle
 10
311.1685425
 20
202.9521174164631
 30
0.0
 40
2.5
100
AcDbArc
 50
180.0
 51
90.0
  0
LINE
  5
F19
330
1A
100
AcDbEntity
  8
MSRI3_6-7
100
AcDbLine
 10
311.1685425
 20
206.690772916463
 30
0.0
 11
311.1685425
 21
198.869345416463
 31
0.0
  0
CIRCLE
  5
F1A
330
1A
100
AcDbEntity
  8
MSRI3_6-0
100
AcDbCircle
 10
311.1685425
 20
202.9521174164631
 30
0.0
 40
2.099999999999999
  0
LINE
  5
F1B
330
1A
100
AcDbEntity
  8
MSRI3_6-7
100
AcDbLine
 10
307.1319345
 20
202.9521174164631
 30
0.0
 11
315.346221
 21
202.9521174164631
 31
0.0
  0
CIRCLE
  5
F1C
330
1A
100
AcDbEntity
  8
MSRI3_6-0
100
AcDbCircle
 10
311.1685425
 20
217.952117416463
 30
0.0
 40
2.099999999999999
  0
LINE
  5
F1D
330
1A
100
AcDbEntity
  8
MSRI3_6-7
100
AcDbLine
 10
307.1319345
 20
217.952117416463
 30
0.0
 11
315.346221
 21
217.952117416463
 31
0.0
  0
ARC
  5
F1E
330
1A
100
AcDbEntity
  8
MSRI3_6-4
100
AcDbCircle
 10
329.1685425000001
 20
202.9521174164631
 30
0.0
 40
2.5
100
AcDbArc
 50
180.0
 51
90.0
  0
LINE
  5
F1F
330
1A
100
AcDbEntity
  8
MSRI3_6-7
100
AcDbLine
 10
329.1685425000001
 20
206.690772916463
 30
0.0
 11
329.1685425000001
 21
198.869345416463
 31
0.0
  0
CIRCLE
  5
F20
330
1A
100
AcDbEntity
  8
MSRI3_6-0
100
AcDbCircle
 10
329.1685425000001
 20
202.9521174164631
 30
0.0
 40
2.099999999999999
  0
CIRCLE
  5
F21
330
1A
100
AcDbEntity
  8
MSRI3_6-0
100
AcDbCircle
 10
329.1685425000001
 20
217.952117416463
 30
0.0
 40
2.099999999999999
  0
LINE
  5
F22
330
1A
100
AcDbEntity
  8
MSRI3_6-7
100
AcDbLine
 10
341.131935
 20
210.452117416463
 30
0.0
 11
349.3462215
 21
210.452117416463
 31
0.0
  0
LINE
  5
F23
330
1A
100
AcDbEntity
  8
MSRI3_6-7
100
AcDbLine
 10
345.1685415
 20
214.190772916463
 30
0.0
 11
345.1685415
 21
206.3693454164631
 31
0.0
  0
ARC
  5
F24
330
1A
100
AcDbEntity
  8
MSRI3_6-4
100
AcDbCircle
 10
345.1685415
 20
210.452117416463
 30
0.0
 40
2.5
100
AcDbArc
 50
180.0
 51
90.0
  0
CIRCLE
  5
F25
330
1A
100
AcDbEntity
  8
MSRI3_6-0
100
AcDbCircle
 10
345.1685415
 20
210.452117416463
 30
0.0
 40
2.099999999999999
  0
LINE
  5
F26
330
1A
100
AcDbEntity
  8
MSRI3_6-0
100
AcDbLine
 10
337.168542
 20
254.767073416463
 30
0.0
 11
328.6685415
 21
249.859596916463
 31
0.0
  0
LINE
  5
F27
330
1A
100
AcDbEntity
  8
MSRI3_6-7
100
AcDbLine
 10
328.6685415
 20
244.952117416463
 30
0.0
 11
347.182281
 21
244.952117416463
 31
0.0
  0
LINE
  5
F28
330
1A
100
AcDbEntity
  8
MSRI3_6-0
100
AcDbLine
 10
328.6685415
 20
240.044640916463
 30
0.0
 11
337.168542
 21
235.1371644164631
 31
0.0
  0
ARC
  5
F29
330
1A
100
AcDbEntity
  8
MSRI3_6-0
100
AcDbCircle
 10
337.168542
 20
244.952117416463
 30
0.0
 40
6.499999500000001
100
AcDbArc
 50
270.000003
 51
192.124996
  0
CIRCLE
  5
F2A
330
1A
100
AcDbEntity
  8
MSRI3_6-0
100
AcDbCircle
 10
337.168542
 20
244.952117416463
 30
0.0
 40
7.000000499999998
  0
LINE
  5
F2B
330
1A
100
AcDbEntity
  8
MSRI3_6-0
100
AcDbLine
 10
290.168541
 20
223.9521174164631
 30
0.0
 11
350.1685425000001
 21
223.9521174164631
 31
0.0
  0
LINE
  5
F2C
330
1A
100
AcDbEntity
  8
MSRI3_6-7
100
AcDbLine
 10
331.6319355
 20
286.9521189164631
 30
0.0
 11
339.8462205
 21
286.9521189164631
 31
0.0
  0
LINE
  5
F2D
330
1A
100
AcDbEntity
  8
MSRI3_6-2
100
AcDbLine
 10
300.910212
 20
280.6242819164631
 30
0.0
 11
339.4268715
 21
280.6242819164631
 31
0.0
  0
LINE
  5
F2E
330
1A
100
AcDbEntity
  8
MSRI3_6-0
100
AcDbLine
 10
320.1685425000001
 20
262.4521179164631
 30
0.0
 11
350.1685425000001
 21
262.4521179164631
 31
0.0
  0
LINE
  5
F2F
330
1A
100
AcDbEntity
  8
MSRI3_6-0
100
AcDbLine
 10
301.776237
 20
280.1242824164631
 30
0.0
 11
338.5608465
 21
280.1242824164631
 31
0.0
  0
LINE
  5
F30
330
1A
100
AcDbEntity
  8
MSRI3_6-2
100
AcDbLine
 10
290.168541
 20
292.9521189164631
 30
0.0
 11
350.1685425000001
 21
292.9521189164631
 31
0.0
  0
LINE
  5
F31
330
1A
100
AcDbEntity
  8
MSRI3_6-0
100
AcDbLine
 10
240.340584
 20
375.525396
 30
0.0
 11
240.340584
 21
315.525396
 31
0.0
  0
LINE
  5
F32
330
1A
100
AcDbEntity
  8
MSRI3_6-0
100
AcDbLine
 10
234.840584
 20
375.525396
 30
0.0
 11
234.840584
 21
315.525396
 31
0.0
  0
POLYLINE
  5
F33
330
1A
100
AcDbEntity
  8
MSRI3_6-2
100
AcDb2dPolyline
 66
     1
 10
0.0
 20
0.0
 30
0.0
  0
VERTEX
  5
F34
330
F33
100
AcDbEntity
  8
MSRI3_6-2
  6
Continuous
100
AcDbVertex
100
AcDb2dVertex
 10
213.340584
 20
292.9521189164631
 30
0.0
  0
VERTEX
  5
F35
330
F33
100
AcDbEntity
  8
MSRI3_6-2
  6
Continuous
100
AcDbVertex
100
AcDb2dVertex
 10
213.340584
 20
290.852118916463
 30
0.0
  0
VERTEX
  5
F36
330
F33
100
AcDbEntity
  8
MSRI3_6-2
  6
Continuous
100
AcDbVertex
100
AcDb2dVertex
 10
211.7405835
 20
290.852118916463
 30
0.0
  0
VERTEX
  5
F37
330
F33
100
AcDbEntity
  8
MSRI3_6-2
  6
Continuous
100
AcDbVertex
100
AcDb2dVertex
 10
211.7405835
 20
287.452118416463
 30
0.0
  0
VERTEX
  5
F38
330
F33
100
AcDbEntity
  8
MSRI3_6-2
  6
Continuous
100
AcDbVertex
100
AcDb2dVertex
 10
213.640584
 20
287.452118416463
 30
0.0
  0
VERTEX
  5
F39
330
F33
100
AcDbEntity
  8
MSRI3_6-2
  6
Continuous
100
AcDbVertex
100
AcDb2dVertex
 10
213.640584
 20
280.9521189164631
 30
0.0
  0
SEQEND
  5
F3A
330
F33
100
AcDbEntity
  8
MSRI3_6-2
  0
LINE
  5
F3B
330
1A
100
AcDbEntity
  8
MSRI3_6-7
100
AcDbLine
 10
208.3405845
 20
295.9199799164631
 30
0.0
 11
208.3405845
 21
278.4199794164631
 31
0.0
  0
INSERT
  5
F3C
330
1A
100
AcDbEntity
  8
MSRI3_6-8
100
AcDbBlockReference
  2
*X2
 10
0.0
 20
36.42915991646305
 30
0.0
1001
GENIUS_GENODEF_13
1002
{
1000
HIER
1070
     0
1002
}
1002
{
1000
MANEDIT
1070
     0
1002
}
1002
{
1000
NOSEL
1070
     0
1002
}
1002
{
1000
BEHIND
1070
     0
1002
}
1002
{
1000
REACTOR
1002
}
1001
GENIUS_GENOBJ-N-HTC_13
1002
{
1000
OWNER
1000
GEN
1002
}
1001
GENIUS_GENHATCH_13
1002
{
1000
DATA
1040
45.0
1042
2.5
1000
_U
1070
     0
1011
213.6086947023269
1021
288.9725918755008
1031
0.0
1002
}
1002
{
1000
UCS
1010
0.0
1020
0.0
1030
0.0
1010
1.0
1020
0.0
1030
0.0
1010
0.0
1020
1.0
1030
0.0
1002
}
1001
ACAD
1000
HATCH
1002
{
1070
    19
1000
_U
1040
2.5
1040
0.7853981633974483
1070
     0
1002
}
  0
LINE
  5
F3D
330
1A
100
AcDbEntity
  8
MSRI3_6-4
100
AcDbLine
 10
212.3405845
 20
287.452118416463
 30
0.0
 11
212.3405845
 21
290.852118916463
 31
0.0
  0
LINE
  5
F3E
330
1A
100
AcDbEntity
  8
MSRI3_6-2
100
AcDbLine
 10
214.3405845
 20
280.9521189164631
 30
0.0
 11
214.3405845
 21
292.9521189164631
 31
0.0
  0
LINE
  5
F3F
330
1A
100
AcDbEntity
  8
MSRI3_6-2
100
AcDbLine
 10
212.9639805
 20
268.9521189164631
 30
0.0
 11
212.9639805
 21
280.9521189164631
 31
0.0
  0
LINE
  5
F40
330
1A
100
AcDbEntity
  8
MSRI3_6-2
100
AcDbLine
 10
213.8405835
 20
268.9521189164631
 30
0.0
 11
213.8405835
 21
262.9521189164631
 31
0.0
  0
LINE
  5
F41
330
1A
100
AcDbEntity
  8
MSRI3_6-0
100
AcDbLine
 10
240.340584
 20
262.4521179164631
 30
0.0
 11
240.340584
 21
223.9521174164631
 31
0.0
  0
CIRCLE
  5
F42
330
1A
100
AcDbEntity
  8
MSRI3_6-0
100
AcDbCircle
 10
220.340583
 20
345.525396
 30
0.0
 40
7.5
  0
LINE
  5
F43
330
1A
100
AcDbEntity
  8
MSRI3_6-7
100
AcDbLine
 10
211.218459
 20
345.525396
 30
0.0
 11
229.315959
 21
345.525396
 31
0.0
  0
CIRCLE
  5
F44
330
1A
100
AcDbEntity
  8
MSRI3_6-0
100
AcDbCircle
 10
220.340583
 20
345.525396
 30
0.0
 40
6.499999500000001
  0
POLYLINE
  5
F45
330
1A
100
AcDbEntity
  8
MSRI3_6-0
100
AcDb2dPolyline
 66
     1
 10
0.0
 20
0.0
 30
0.0
 70
     1
  0
VERTEX
  5
F46
330
F45
100
AcDbEntity
  8
MSRI3_6-0
  6
Continuous
100
AcDbVertex
100
AcDb2dVertex
 10
218.608533
 20
342.525396
 30
0.0
  0
VERTEX
  5
F47
330
F45
100
AcDbEntity
  8
MSRI3_6-0
  6
Continuous
100
AcDbVertex
100
AcDb2dVertex
 10
216.8764815
 20
345.525396
 30
0.0
  0
VERTEX
  5
F48
330
F45
100
AcDbEntity
  8
MSRI3_6-0
  6
Continuous
100
AcDbVertex
100
AcDb2dVertex
 10
218.608533
 20
348.525396
 30
0.0
  0
VERTEX
  5
F49
330
F45
100
AcDbEntity
  8
MSRI3_6-0
  6
Continuous
100
AcDbVertex
100
AcDb2dVertex
 10
222.0726345
 20
348.525396
 30
0.0
  0
VERTEX
  5
F4A
330
F45
100
AcDbEntity
  8
MSRI3_6-0
  6
Continuous
100
AcDbVertex
100
AcDb2dVertex
 10
223.804686
 20
345.525396
 30
0.0
  0
VERTEX
  5
F4B
330
F45
100
AcDbEntity
  8
MSRI3_6-0
  6
Continuous
100
AcDbVertex
100
AcDb2dVertex
 10
222.0726345
 20
342.525396
 30
0.0
  0
VERTEX
  5
F4C
330
F45
100
AcDbEntity
  8
MSRI3_6-0
  6
Continuous
100
AcDbVertex
100
AcDb2dVertex
 10
218.608533
 20
342.525396
 30
0.0
  0
SEQEND
  5
F4D
330
F45
100
AcDbEntity
  8
MSRI3_6-0
  0
LINE
  5
F4E
330
1A
100
AcDbEntity
  8
MSRI3_6-7
100
AcDbLine
 10
220.340583
 20
355.524936
 30
0.0
 11
220.340583
 21
336.3558735
 31
0.0
  0
LINE
  5
F4F
330
1A
100
AcDbEntity
  8
MSRI3_6-2
100
AcDbLine
 10
290.168541
 20
292.9521189164631
 30
0.0
 11
290.168541
 21
280.6242819164631
 31
0.0
  0
ARC
  5
F50
330
1A
100
AcDbEntity
  8
MSRI3_6-4
100
AcDbCircle
 10
304.6685415000001
 20
286.9521189164631
 30
0.0
 40
2.5
100
AcDbArc
 50
180.0
 51
90.0
  0
LINE
  5
F51
330
1A
100
AcDbEntity
  8
MSRI3_6-7
100
AcDbLine
 10
304.6685415000001
 20
290.6907744164631
 30
0.0
 11
304.6685415000001
 21
282.8693454164631
 31
0.0
  0
ARC
  5
F52
330
1A
100
AcDbEntity
  8
MSRI3_6-4
100
AcDbCircle
 10
320.1685425000001
 20
286.9521189164631
 30
0.0
 40
2.5
100
AcDbArc
 50
180.0
 51
90.0
  0
LINE
  5
F53
330
1A
100
AcDbEntity
  8
MSRI3_6-7
100
AcDbLine
 10
320.1685425000001
 20
290.6907744164631
 30
0.0
 11
320.1685425000001
 21
282.8693454164631
 31
0.0
  0
LINE
  5
F54
330
1A
100
AcDbEntity
  8
MSRI3_6-0
100
AcDbLine
 10
303.1685415
 20
248.9935704164631
 30
0.0
 11
299.668542
 21
246.9728439164631
 31
0.0
  0
LINE
  5
F55
330
1A
100
AcDbEntity
  8
MSRI3_6-0
100
AcDbLine
 10
299.668542
 20
242.9313924164631
 30
0.0
 11
303.1685415
 21
240.9106659164631
 31
0.0
  0
ARC
  5
F56
330
1A
100
AcDbEntity
  8
MSRI3_6-0
100
AcDbCircle
 10
303.1685415
 20
244.952117416463
 30
0.0
 40
6.499999500000001
100
AcDbArc
 50
257.419483
 51
193.3648
  0
CIRCLE
  5
F57
330
1A
100
AcDbEntity
  8
MSRI3_6-0
100
AcDbCircle
 10
303.1685415
 20
244.952117416463
 30
0.0
 40
7.000000499999998
  0
LINE
  5
F58
330
1A
100
AcDbEntity
  8
MSRI3_6-0
100
AcDbLine
 10
303.1685415
 20
235.1371644164631
 30
0.0
 11
294.668541
 21
240.044640916463
 31
0.0
  0
LINE
  5
F59
330
1A
100
AcDbEntity
  8
MSRI3_6-7
100
AcDbLine
 10
293.3065004999999
 20
244.952117416463
 30
0.0
 11
311.668542
 21
244.952117416463
 31
0.0
  0
LINE
  5
F5A
330
1A
100
AcDbEntity
  8
MSRI3_6-0
100
AcDbLine
 10
294.668541
 20
249.859596916463
 30
0.0
 11
303.1685415
 21
254.767073416463
 31
0.0
  0
LINE
  5
F5B
330
1A
100
AcDbEntity
  8
MSRI3_6-7
100
AcDbLine
 10
300.631935
 20
286.9521189164631
 30
0.0
 11
308.8462215
 21
286.9521189164631
 31
0.0
  0
LINE
  5
F5C
330
1A
100
AcDbEntity
  8
MSRI3_6-0
100
AcDbLine
 10
304.6685415000001
 20
278.4544089164631
 30
0.0
 11
297.1685415000001
 21
282.784536916463
 31
0.0
  0
LINE
  5
F5D
330
1A
100
AcDbEntity
  8
MSRI3_6-0
100
AcDbLine
 10
297.1685415000001
 20
265.4640279164631
 30
0.0
 11
304.6685415000001
 21
269.7941559164631
 31
0.0
  0
LINE
  5
F5E
330
1A
100
AcDbEntity
  8
MSRI3_6-7
100
AcDbLine
 10
287.849469
 20
274.1242824164631
 30
0.0
 11
306.701031
 21
274.1242824164631
 31
0.0
  0
CIRCLE
  5
F5F
330
1A
100
AcDbEntity
  8
MSRI3_6-0
100
AcDbCircle
 10
297.1685415000001
 20
274.1242824164631
 30
0.0
 40
4.9999995
  0
ARC
  5
F60
330
1A
100
AcDbEntity
  8
MSRI3_6-0
100
AcDbCircle
 10
297.1685415000001
 20
274.1242824164631
 30
0.0
 40
4.5
100
AcDbArc
 50
270.000003
 51
192.6101769999999
  0
LINE
  5
F61
330
1A
100
AcDbEntity
  8
MSRI3_6-0
100
AcDbLine
 10
290.168541
 20
262.4521179164631
 30
0.0
 11
320.1685425000001
 21
262.4521179164631
 31
0.0
  0
LINE
  5
F62
330
1A
100
AcDbEntity
  8
MSRI3_6-7
100
AcDbLine
 10
294.668541
 20
256.992440416463
 30
0.0
 11
294.668541
 21
249.859596916463
 31
0.0
  0
ARC
  5
F63
330
1A
100
AcDbEntity
  8
MSRI3_6-0
100
AcDbCircle
 10
294.668541
 20
251.9521179164631
 30
0.0
 40
3.75
100
AcDbArc
 50
1.102287999999999
 51
270.000003
  0
LINE
  5
F64
330
1A
100
AcDbEntity
  8
MSRI3_6-3
100
AcDbLine
 10
295.0033170000001
 20
233.2075284164631
 30
0.0
 11
290.168541
 21
233.2075284164631
 31
0.0
  0
LINE
  5
F65
330
1A
100
AcDbEntity
  8
MSRI3_6-3
100
AcDbLine
 10
295.0033170000001
 20
233.6075274164631
 30
0.0
 11
290.168541
 21
233.6075274164631
 31
0.0
  0
LINE
  5
F66
330
1A
100
AcDbEntity
  8
MSRI3_6-7
100
AcDbLine
 10
286.7368275
 20
235.707527416463
 30
0.0
 11
297.436827
 21
235.707527416463
 31
0.0
  0
POLYLINE
  5
F67
330
1A
100
AcDbEntity
  8
MSRI3_6-0
100
AcDb2dPolyline
 66
     1
 10
0.0
 20
0.0
 30
0.0
 70
     1
  0
VERTEX
  5
F68
330
F67
100
AcDbEntity
  8
MSRI3_6-0
  6
Continuous
100
AcDbVertex
100
AcDb2dVertex
 10
295.823241
 20
230.452118416463
 30
0.0
  0
VERTEX
  5
F69
330
F67
100
AcDbEntity
  8
MSRI3_6-0
  6
Continuous
100
AcDbVertex
100
AcDb2dVertex
 10
296.9779425
 20
228.452117416463
 30
0.0
  0
VERTEX
  5
F6A
330
F67
100
AcDbEntity
  8
MSRI3_6-0
  6
Continuous
100
AcDbVertex
100
AcDb2dVertex
 10
295.823241
 20
226.4521179164631
 30
0.0
  0
VERTEX
  5
F6B
330
F67
100
AcDbEntity
  8
MSRI3_6-0
  6
Continuous
100
AcDbVertex
100
AcDb2dVertex
 10
293.513841
 20
226.4521179164631
 30
0.0
  0
VERTEX
  5
F6C
330
F67
100
AcDbEntity
  8
MSRI3_6-0
  6
Continuous
100
AcDbVertex
100
AcDb2dVertex
 10
292.359141
 20
228.452117416463
 30
0.0
  0
VERTEX
  5
F6D
330
F67
100
AcDbEntity
  8
MSRI3_6-0
  6
Continuous
100
AcDbVertex
100
AcDb2dVertex
 10
293.513841
 20
230.452118416463
 30
0.0
  0
VERTEX
  5
F6E
330
F67
100
AcDbEntity
  8
MSRI3_6-0
  6
Continuous
100
AcDbVertex
100
AcDb2dVertex
 10
295.823241
 20
230.452118416463
 30
0.0
  0
VERTEX
  5
F6F
330
F67
100
AcDbEntity
  8
MSRI3_6-0
  6
Continuous
100
AcDbVertex
100
AcDb2dVertex
 10
295.823241
 20
230.452118416463
 30
0.0
  0
SEQEND
  5
F70
330
F67
100
AcDbEntity
  8
MSRI3_6-0
  0
CIRCLE
  5
F71
330
1A
100
AcDbEntity
  8
MSRI3_6-0
100
AcDbCircle
 10
294.668541
 20
228.452117416463
 30
0.0
 40
3.75
  0
LINE
  5
F72
330
1A
100
AcDbEntity
  8
MSRI3_6-7
100
AcDbLine
 10
290.168541
 20
228.452117416463
 30
0.0
 11
299.557281
 21
228.452117416463
 31
0.0
  0
LINE
  5
F73
330
1A
100
AcDbEntity
  8
MSRI3_6-7
100
AcDbLine
 10
294.668541
 20
233.2075284164631
 30
0.0
 11
294.668541
 21
223.9521174164631
 31
0.0
  0
LINE
  5
F74
330
1A
100
AcDbEntity
  8
MSRI3_6-3
100
AcDbLine
 10
295.0033170000001
 20
237.807527416463
 30
0.0
 11
290.168541
 21
237.807527416463
 31
0.0
  0
LINE
  5
F75
330
1A
100
AcDbEntity
  8
MSRI3_6-3
100
AcDbLine
 10
295.0033170000001
 20
238.207527916463
 30
0.0
 11
290.168541
 21
238.207527916463
 31
0.0
  0
POLYLINE
  5
F76
330
1A
100
AcDbEntity
  8
MSRI3_6-0
100
AcDb2dPolyline
 66
     1
 10
0.0
 20
0.0
 30
0.0
  0
VERTEX
  5
F77
330
F76
100
AcDbEntity
  8
MSRI3_6-0
  6
Continuous
100
AcDbVertex
100
AcDb2dVertex
 10
293.513841
 20
253.9521189164631
 30
0.0
  0
VERTEX
  5
F78
330
F76
100
AcDbEntity
  8
MSRI3_6-0
  6
Continuous
100
AcDbVertex
100
AcDb2dVertex
 10
292.359141
 20
251.9521179164631
 30
0.0
  0
VERTEX
  5
F79
330
F76
100
AcDbEntity
  8
MSRI3_6-0
  6
Continuous
100
AcDbVertex
100
AcDb2dVertex
 10
293.513841
 20
249.952118416463
 30
0.0
  0
VERTEX
  5
F7A
330
F76
100
AcDbEntity
  8
MSRI3_6-0
  6
Continuous
100
AcDbVertex
100
AcDb2dVertex
 10
294.828795
 20
249.952118416463
 30
0.0
  0
SEQEND
  5
F7B
330
F76
100
AcDbEntity
  8
MSRI3_6-0
  0
LINE
  5
F7C
330
1A
100
AcDbEntity
  8
MSRI3_6-7
100
AcDbLine
 10
290.168541
 20
251.9521179164631
 30
0.0
 11
298.417848
 21
252.024258916463
 31
0.0
  0
LINE
  5
F7D
330
1A
100
AcDbEntity
  8
MSRI3_6-0
100
AcDbLine
 10
294.668541
 20
240.044640916463
 30
0.0
 11
294.668541
 21
249.859596916463
 31
0.0
  0
LINE
  5
F7E
330
1A
100
AcDbEntity
  8
MSRI3_6-0
100
AcDbLine
 10
299.668542
 20
246.9728439164631
 30
0.0
 11
299.668542
 21
242.9313924164631
 31
0.0
  0
POLYLINE
  5
F7F
330
1A
100
AcDbEntity
  8
MSRI3_6-0
100
AcDb2dPolyline
 66
     1
 10
0.0
 20
0.0
 30
0.0
  0
VERTEX
  5
F80
330
F7F
100
AcDbEntity
  8
MSRI3_6-0
  6
Continuous
100
AcDbVertex
100
AcDb2dVertex
 10
296.3204655
 20
250.8133344164631
 30
0.0
  0
VERTEX
  5
F81
330
F7F
100
AcDbEntity
  8
MSRI3_6-0
  6
Continuous
100
AcDbVertex
100
AcDb2dVertex
 10
296.9779425
 20
251.9521179164631
 30
0.0
  0
VERTEX
  5
F82
330
F7F
100
AcDbEntity
  8
MSRI3_6-0
  6
Continuous
100
AcDbVertex
100
AcDb2dVertex
 10
295.823241
 20
253.9521189164631
 30
0.0
  0
VERTEX
  5
F83
330
F7F
100
AcDbEntity
  8
MSRI3_6-0
  6
Continuous
100
AcDbVertex
100
AcDb2dVertex
 10
293.513841
 20
253.9521189164631
 30
0.0
  0
SEQEND
  5
F84
330
F7F
100
AcDbEntity
  8
MSRI3_6-0
  0
LINE
  5
F85
330
1A
100
AcDbEntity
  8
MSRI3_6-0
100
AcDbLine
 10
289.6685415000001
 20
278.4544089164631
 30
0.0
 11
289.6685415000001
 21
269.7941559164631
 31
0.0
  0
LINE
  5
F86
330
1A
100
AcDbEntity
  8
MSRI3_6-7
100
AcDbLine
 10
297.1685415000001
 20
284.277597916463
 30
0.0
 11
297.1685415000001
 21
264.1361919164631
 31
0.0
  0
POLYLINE
  5
F87
330
1A
100
AcDbEntity
  8
MSRI3_6-0
100
AcDb2dPolyline
 66
     1
 10
0.0
 20
0.0
 30
0.0
 70
     1
  0
VERTEX
  5
F88
330
F87
100
AcDbEntity
  8
MSRI3_6-0
  6
Continuous
100
AcDbVertex
100
AcDb2dVertex
 10
294.668541
 20
272.680905916463
 30
0.0
  0
VERTEX
  5
F89
330
F87
100
AcDbEntity
  8
MSRI3_6-0
  6
Continuous
100
AcDbVertex
100
AcDb2dVertex
 10
297.1685415000001
 20
271.237530916463
 30
0.0
  0
VERTEX
  5
F8A
330
F87
100
AcDbEntity
  8
MSRI3_6-0
  6
Continuous
100
AcDbVertex
100
AcDb2dVertex
 10
299.668542
 20
272.680905916463
 30
0.0
  0
VERTEX
  5
F8B
330
F87
100
AcDbEntity
  8
MSRI3_6-0
  6
Continuous
100
AcDbVertex
100
AcDb2dVertex
 10
299.668542
 20
275.567658916463
 30
0.0
  0
VERTEX
  5
F8C
330
F87
100
AcDbEntity
  8
MSRI3_6-0
  6
Continuous
100
AcDbVertex
100
AcDb2dVertex
 10
297.1685415000001
 20
277.011033916463
 30
0.0
  0
VERTEX
  5
F8D
330
F87
100
AcDbEntity
  8
MSRI3_6-0
  6
Continuous
100
AcDbVertex
100
AcDb2dVertex
 10
294.668541
 20
275.567658916463
 30
0.0
  0
VERTEX
  5
F8E
330
F87
100
AcDbEntity
  8
MSRI3_6-0
  6
Continuous
100
AcDbVertex
100
AcDb2dVertex
 10
294.668541
 20
272.680905916463
 30
0.0
  0
VERTEX
  5
F8F
330
F87
100
AcDbEntity
  8
MSRI3_6-0
  6
Continuous
100
AcDbVertex
100
AcDb2dVertex
 10
294.668541
 20
272.680905916463
 30
0.0
  0
SEQEND
  5
F90
330
F87
100
AcDbEntity
  8
MSRI3_6-0
  0
LINE
  5
F91
330
1A
100
AcDbEntity
  8
MSRI3_6-0
100
AcDbLine
 10
289.6685415000001
 20
269.7941559164631
 30
0.0
 11
297.1685415000001
 21
265.4640279164631
 31
0.0
  0
LINE
  5
F92
330
1A
100
AcDbEntity
  8
MSRI3_6-2
100
AcDbLine
 10
290.168541
 20
280.6242819164631
 30
0.0
 11
293.426871
 21
280.6242819164631
 31
0.0
  0
LINE
  5
F93
330
1A
100
AcDbEntity
  8
MSRI3_6-0
100
AcDbLine
 10
297.1685415000001
 20
282.784536916463
 30
0.0
 11
289.6685415000001
 21
278.4544089164631
 31
0.0
  0
LINE
  5
F94
330
1A
100
AcDbEntity
  8
MSRI3_6-0
100
AcDbLine
 10
290.168541
 20
280.1242824164631
 30
0.0
 11
290.168541
 21
278.743083916463
 31
0.0
  0
LINE
  5
F95
330
1A
100
AcDbEntity
  8
MSRI3_6-0
100
AcDbLine
 10
290.168541
 20
280.1242824164631
 30
0.0
 11
292.560846
 21
280.1242824164631
 31
0.0
  0
LINE
  5
F96
330
1A
100
AcDbEntity
  8
MSRI3_6-7
100
AcDbLine
 10
320.1685425000001
 20
261.6907734164631
 30
0.0
 11
320.1685425000001
 21
253.8693444164631
 31
0.0
  0
LINE
  5
F97
330
1A
100
AcDbEntity
  8
MSRI3_6-7
100
AcDbLine
 10
303.1685415
 20
256.1986914164631
 30
0.0
 11
303.1685415
 21
233.2791594164631
 31
0.0
  0
LINE
  5
F98
330
1A
100
AcDbEntity
  8
MSRI3_6-7
100
AcDbLine
 10
316.1319345
 20
229.9521174164631
 30
0.0
 11
324.346221
 21
229.9521174164631
 31
0.0
  0
LINE
  5
F99
330
1A
100
AcDbEntity
  8
MSRI3_6-0
100
AcDbLine
 10
311.668542
 20
240.044640916463
 30
0.0
 11
303.1685415
 21
235.1371644164631
 31
0.0
  0
LINE
  5
F9A
330
1A
100
AcDbEntity
  8
MSRI3_6-0
100
AcDbLine
 10
303.1685415
 20
254.767073416463
 30
0.0
 11
311.668542
 21
249.859596916463
 31
0.0
  0
LINE
  5
F9B
330
1A
100
AcDbEntity
  8
MSRI3_6-0
100
AcDbLine
 10
306.6685425
 20
242.9313924164631
 30
0.0
 11
306.6685425
 21
246.9728439164631
 31
0.0
  0
LINE
  5
F9C
330
1A
100
AcDbEntity
  8
MSRI3_6-0
100
AcDbLine
 10
303.1685415
 20
240.9106659164631
 30
0.0
 11
306.6685425
 21
242.9313924164631
 31
0.0
  0
LINE
  5
F9D
330
1A
100
AcDbEntity
  8
MSRI3_6-0
100
AcDbLine
 10
306.6685425
 20
246.9728439164631
 30
0.0
 11
303.1685415
 21
248.9935704164631
 31
0.0
  0
LINE
  5
F9E
330
1A
100
AcDbEntity
  8
MSRI3_6-0
100
AcDbLine
 10
311.668542
 20
249.859596916463
 30
0.0
 11
311.668542
 21
240.044640916463
 31
0.0
  0
LINE
  5
F9F
330
1A
100
AcDbEntity
  8
MSRI3_6-7
100
AcDbLine
 10
320.1685425000001
 20
233.690772916463
 30
0.0
 11
320.1685425000001
 21
225.8693454164631
 31
0.0
  0
ARC
  5
FA0
330
1A
100
AcDbEntity
  8
MSRI3_6-4
100
AcDbCircle
 10
320.1685425000001
 20
229.9521174164631
 30
0.0
 40
2.5
100
AcDbArc
 50
180.0
 51
90.0
  0
CIRCLE
  5
FA1
330
1A
100
AcDbEntity
  8
MSRI3_6-0
100
AcDbCircle
 10
320.1685425000001
 20
229.9521174164631
 30
0.0
 40
2.099999999999999
  0
LINE
  5
FA2
330
1A
100
AcDbEntity
  8
MSRI3_6-0
100
AcDbLine
 10
328.6685415
 20
249.859596916463
 30
0.0
 11
328.6685415
 21
240.044640916463
 31
0.0
  0
LINE
  5
FA3
330
1A
100
AcDbEntity
  8
MSRI3_6-7
100
AcDbLine
 10
316.1319345
 20
286.9521189164631
 30
0.0
 11
324.346221
 21
286.9521189164631
 31
0.0
  0
TEXT
  5
FA4
330
1A
100
AcDbEntity
  8
6
100
AcDbText
 10
308.7392523422228
 20
269.1949222942134
 30
0.0
 40
3.5
  1
MSR I3/6
100
AcDbText
  0
LINE
  5
FA5
330
1A
100
AcDbEntity
  8
MSRI3_6-7
100
AcDbLine
 10
316.1319345
 20
257.9521179164631
 30
0.0
 11
324.346221
 21
257.9521179164631
 31
0.0
  0
LINE
  5
FA6
330
1A
100
AcDbEntity
  8
MSRI3_6-0
100
AcDbLine
 10
304.6685415000001
 20
269.7941559164631
 30
0.0
 11
304.6685415000001
 21
278.4544089164631
 31
0.0
  0
LINE
  5
FA7
330
1A
100
AcDbEntity
  8
MSRI3_6-2
100
AcDbLine
 10
305.1685425
 20
280.6242819164631
 30
0.0
 11
305.1685425
 21
280.1242824164631
 31
0.0
  0
CIRCLE
  5
FA8
330
1A
100
AcDbEntity
  8
MSRI3_6-0
100
AcDbCircle
 10
304.6685415000001
 20
286.9521189164631
 30
0.0
 40
2.099999999999999
  0
ARC
  5
FA9
330
1A
100
AcDbEntity
  8
MSRI3_6-4
100
AcDbCircle
 10
320.1685425000001
 20
257.9521179164631
 30
0.0
 40
2.5
100
AcDbArc
 50
180.0
 51
90.0
  0
CIRCLE
  5
FAA
330
1A
100
AcDbEntity
  8
MSRI3_6-0
100
AcDbCircle
 10
320.1685425000001
 20
257.9521179164631
 30
0.0
 40
2.099999999999999
  0
CIRCLE
  5
FAB
330
1A
100
AcDbEntity
  8
MSRI3_6-0
100
AcDbCircle
 10
320.1685425000001
 20
286.9521189164631
 30
0.0
 40
2.099999999999999
  0
LINE
  5
FAC
330
1A
100
AcDbEntity
  8
MSRI3_6-2
100
AcDbLine
 10
350.1685425000001
 20
292.9521189164631
 30
0.0
 11
350.1685425000001
 21
280.6242819164631
 31
0.0
  0
ARC
  5
FAD
330
1A
100
AcDbEntity
  8
MSRI3_6-4
100
AcDbCircle
 10
335.668542
 20
286.9521189164631
 30
0.0
 40
2.5
100
AcDbArc
 50
180.0
 51
90.0
  0
LINE
  5
FAE
330
1A
100
AcDbEntity
  8
MSRI3_6-7
100
AcDbLine
 10
335.668542
 20
290.6907744164631
 30
0.0
 11
335.668542
 21
282.8693454164631
 31
0.0
  0
LINE
  5
FAF
330
1A
100
AcDbEntity
  8
MSRI3_6-7
100
AcDbLine
 10
337.168542
 20
256.3971279164631
 30
0.0
 11
337.168542
 21
233.775254416463
 31
0.0
  0
LINE
  5
FB0
330
1A
100
AcDbEntity
  8
MSRI3_6-7
100
AcDbLine
 10
345.6685425000001
 20
256.7940039164631
 30
0.0
 11
345.6685425000001
 21
249.952118416463
 31
0.0
  0
ARC
  5
FB1
330
1A
100
AcDbEntity
  8
MSRI3_6-0
100
AcDbCircle
 10
345.6685425000001
 20
251.9521179164631
 30
0.0
 40
3.75
100
AcDbArc
 50
270.000003
 51
178.897712
  0
LINE
  5
FB2
330
1A
100
AcDbEntity
  8
MSRI3_6-7
100
AcDbLine
 10
342.044187
 20
251.9521179164631
 30
0.0
 11
350.1685425000001
 21
251.9521179164631
 31
0.0
  0
LINE
  5
FB3
330
1A
100
AcDbEntity
  8
MSRI3_6-7
100
AcDbLine
 10
353.600256
 20
235.707527416463
 30
0.0
 11
342.9002565
 21
235.707527416463
 31
0.0
  0
LINE
  5
FB4
330
1A
100
AcDbEntity
  8
MSRI3_6-3
100
AcDbLine
 10
345.3337665
 20
233.6075274164631
 30
0.0
 11
350.1685425000001
 21
233.6075274164631
 31
0.0
  0
LINE
  5
FB5
330
1A
100
AcDbEntity
  8
MSRI3_6-3
100
AcDbLine
 10
345.3337665
 20
233.2075284164631
 30
0.0
 11
350.1685425000001
 21
233.2075284164631
 31
0.0
  0
LINE
  5
FB6
330
1A
100
AcDbEntity
  8
MSRI3_6-3
100
AcDbLine
 10
345.3337665
 20
238.207527916463
 30
0.0
 11
350.1685425000001
 21
238.207527916463
 31
0.0
  0
LINE
  5
FB7
330
1A
100
AcDbEntity
  8
MSRI3_6-3
100
AcDbLine
 10
345.3337665
 20
237.807527416463
 30
0.0
 11
350.1685425000001
 21
237.807527416463
 31
0.0
  0
LINE
  5
FB8
330
1A
100
AcDbEntity
  8
MSRI3_6-7
100
AcDbLine
 10
340.6338435
 20
228.452117416463
 30
0.0
 11
350.1685425000001
 21
228.452117416463
 31
0.0
  0
CIRCLE
  5
FB9
330
1A
100
AcDbEntity
  8
MSRI3_6-0
100
AcDbCircle
 10
345.6685425000001
 20
228.452117416463
 30
0.0
 40
3.75
  0
LINE
  5
FBA
330
1A
100
AcDbEntity
  8
MSRI3_6-0
100
AcDbLine
 10
337.168542
 20
235.1371644164631
 30
0.0
 11
345.6685425000001
 21
240.044640916463
 31
0.0
  0
LINE
  5
FBB
330
1A
100
AcDbEntity
  8
MSRI3_6-7
100
AcDbLine
 10
345.6685425000001
 20
233.2075284164631
 30
0.0
 11
345.6685425000001
 21
223.9521174164631
 31
0.0
  0
POLYLINE
  5
FBC
330
1A
100
AcDbEntity
  8
MSRI3_6-0
100
AcDb2dPolyline
 66
     1
 10
0.0
 20
0.0
 30
0.0
 70
     1
  0
VERTEX
  5
FBD
330
FBC
100
AcDbEntity
  8
MSRI3_6-0
  6
Continuous
100
AcDbVertex
100
AcDb2dVertex
 10
346.8232425
 20
230.452118416463
 30
0.0
  0
VERTEX
  5
FBE
330
FBC
100
AcDbEntity
  8
MSRI3_6-0
  6
Continuous
100
AcDbVertex
100
AcDb2dVertex
 10
347.9779425
 20
228.452117416463
 30
0.0
  0
VERTEX
  5
FBF
330
FBC
100
AcDbEntity
  8
MSRI3_6-0
  6
Continuous
100
AcDbVertex
100
AcDb2dVertex
 10
346.8232425
 20
226.4521179164631
 30
0.0
  0
VERTEX
  5
FC0
330
FBC
100
AcDbEntity
  8
MSRI3_6-0
  6
Continuous
100
AcDbVertex
100
AcDb2dVertex
 10
344.513841
 20
226.4521179164631
 30
0.0
  0
VERTEX
  5
FC1
330
FBC
100
AcDbEntity
  8
MSRI3_6-0
  6
Continuous
100
AcDbVertex
100
AcDb2dVertex
 10
343.359141
 20
228.452117416463
 30
0.0
  0
VERTEX
  5
FC2
330
FBC
100
AcDbEntity
  8
MSRI3_6-0
  6
Continuous
100
AcDbVertex
100
AcDb2dVertex
 10
344.513841
 20
230.452118416463
 30
0.0
  0
VERTEX
  5
FC3
330
FBC
100
AcDbEntity
  8
MSRI3_6-0
  6
Continuous
100
AcDbVertex
100
AcDb2dVertex
 10
346.8232425
 20
230.452118416463
 30
0.0
  0
VERTEX
  5
FC4
330
FBC
100
AcDbEntity
  8
MSRI3_6-0
  6
Continuous
100
AcDbVertex
100
AcDb2dVertex
 10
346.8232425
 20
230.452118416463
 30
0.0
  0
SEQEND
  5
FC5
330
FBC
100
AcDbEntity
  8
MSRI3_6-0
  0
LINE
  5
FC6
330
1A
100
AcDbEntity
  8
MSRI3_6-0
100
AcDbLine
 10
345.6685425000001
 20
249.859596916463
 30
0.0
 11
337.168542
 21
254.767073416463
 31
0.0
  0
POLYLINE
  5
FC7
330
1A
100
AcDbEntity
  8
MSRI3_6-0
100
AcDb2dPolyline
 66
     1
 10
0.0
 20
0.0
 30
0.0
 70
     1
  0
VERTEX
  5
FC8
330
FC7
100
AcDbEntity
  8
MSRI3_6-0
  6
Continuous
100
AcDbVertex
100
AcDb2dVertex
 10
333.6685425000001
 20
242.9313924164631
 30
0.0
  0
VERTEX
  5
FC9
330
FC7
100
AcDbEntity
  8
MSRI3_6-0
  6
Continuous
100
AcDbVertex
100
AcDb2dVertex
 10
337.168542
 20
240.9106659164631
 30
0.0
  0
VERTEX
  5
FCA
330
FC7
100
AcDbEntity
  8
MSRI3_6-0
  6
Continuous
100
AcDbVertex
100
AcDb2dVertex
 10
340.6685415
 20
242.9313924164631
 30
0.0
  0
VERTEX
  5
FCB
330
FC7
100
AcDbEntity
  8
MSRI3_6-0
  6
Continuous
100
AcDbVertex
100
AcDb2dVertex
 10
340.6685415
 20
246.9728439164631
 30
0.0
  0
VERTEX
  5
FCC
330
FC7
100
AcDbEntity
  8
MSRI3_6-0
  6
Continuous
100
AcDbVertex
100
AcDb2dVertex
 10
337.168542
 20
248.9935704164631
 30
0.0
  0
VERTEX
  5
FCD
330
FC7
100
AcDbEntity
  8
MSRI3_6-0
  6
Continuous
100
AcDbVertex
100
AcDb2dVertex
 10
333.6685425000001
 20
246.9728439164631
 30
0.0
  0
VERTEX
  5
FCE
330
FC7
100
AcDbEntity
  8
MSRI3_6-0
  6
Continuous
100
AcDbVertex
100
AcDb2dVertex
 10
333.6685425000001
 20
242.9313924164631
 30
0.0
  0
VERTEX
  5
FCF
330
FC7
100
AcDbEntity
  8
MSRI3_6-0
  6
Continuous
100
AcDbVertex
100
AcDb2dVertex
 10
333.6685425000001
 20
242.9313924164631
 30
0.0
  0
SEQEND
  5
FD0
330
FC7
100
AcDbEntity
  8
MSRI3_6-0
  0
LINE
  5
FD1
330
1A
100
AcDbEntity
  8
MSRI3_6-0
100
AcDbLine
 10
345.6685425000001
 20
240.044640916463
 30
0.0
 11
345.6685425000001
 21
249.859596916463
 31
0.0
  0
POLYLINE
  5
FD2
330
1A
100
AcDbEntity
  8
MSRI3_6-0
100
AcDb2dPolyline
 66
     1
 10
0.0
 20
0.0
 30
0.0
  0
VERTEX
  5
FD3
330
FD2
100
AcDbEntity
  8
MSRI3_6-0
  6
Continuous
100
AcDbVertex
100
AcDb2dVertex
 10
344.016618
 20
250.8133344164631
 30
0.0
  0
VERTEX
  5
FD4
330
FD2
100
AcDbEntity
  8
MSRI3_6-0
  6
Continuous
100
AcDbVertex
100
AcDb2dVertex
 10
343.359141
 20
251.9521179164631
 30
0.0
  0
VERTEX
  5
FD5
330
FD2
100
AcDbEntity
  8
MSRI3_6-0
  6
Continuous
100
AcDbVertex
100
AcDb2dVertex
 10
344.513841
 20
253.9521189164631
 30
0.0
  0
VERTEX
  5
FD6
330
FD2
100
AcDbEntity
  8
MSRI3_6-0
  6
Continuous
100
AcDbVertex
100
AcDb2dVertex
 10
346.8232425
 20
253.9521189164631
 30
0.0
  0
SEQEND
  5
FD7
330
FD2
100
AcDbEntity
  8
MSRI3_6-0
  0
POLYLINE
  5
FD8
330
1A
100
AcDbEntity
  8
MSRI3_6-0
100
AcDb2dPolyline
 66
     1
 10
0.0
 20
0.0
 30
0.0
  0
VERTEX
  5
FD9
330
FD8
100
AcDbEntity
  8
MSRI3_6-0
  6
Continuous
100
AcDbVertex
100
AcDb2dVertex
 10
346.8232425
 20
253.9521189164631
 30
0.0
  0
VERTEX
  5
FDA
330
FD8
100
AcDbEntity
  8
MSRI3_6-0
  6
Continuous
100
AcDbVertex
100
AcDb2dVertex
 10
347.9779425
 20
251.9521179164631
 30
0.0
  0
VERTEX
  5
FDB
330
FD8
100
AcDbEntity
  8
MSRI3_6-0
  6
Continuous
100
AcDbVertex
100
AcDb2dVertex
 10
346.8232425
 20
249.952118416463
 30
0.0
  0
VERTEX
  5
FDC
330
FD8
100
AcDbEntity
  8
MSRI3_6-0
  6
Continuous
100
AcDbVertex
100
AcDb2dVertex
 10
345.5082885
 20
249.952118416463
 30
0.0
  0
SEQEND
  5
FDD
330
FD8
100
AcDbEntity
  8
MSRI3_6-0
  0
LINE
  5
FDE
330
1A
100
AcDbEntity
  8
MSRI3_6-2
100
AcDbLine
 10
346.9102125
 20
280.6242819164631
 30
0.0
 11
350.1685425000001
 21
280.6242819164631
 31
0.0
  0
LINE
  5
FDF
330
1A
100
AcDbEntity
  8
MSRI3_6-0
100
AcDbLine
 10
347.7762375
 20
280.1242824164631
 30
0.0
 11
350.1685425000001
 21
280.1242824164631
 31
0.0
  0
LINE
  5
FE0
330
1A
100
AcDbEntity
  8
MSRI3_6-7
100
AcDbLine
 10
334.085406
 20
274.1242824164631
 30
0.0
 11
352.044
 21
274.1242824164631
 31
0.0
  0
POLYLINE
  5
FE1
330
1A
100
AcDbEntity
  8
MSRI3_6-0
100
AcDb2dPolyline
 66
     1
 10
0.0
 20
0.0
 30
0.0
 70
     1
  0
VERTEX
  5
FE2
330
FE1
100
AcDbEntity
  8
MSRI3_6-0
  6
Continuous
100
AcDbVertex
100
AcDb2dVertex
 10
335.668542
 20
269.7941559164631
 30
0.0
  0
VERTEX
  5
FE3
330
FE1
100
AcDbEntity
  8
MSRI3_6-0
  6
Continuous
100
AcDbVertex
100
AcDb2dVertex
 10
343.168542
 20
265.4640279164631
 30
0.0
  0
VERTEX
  5
FE4
330
FE1
100
AcDbEntity
  8
MSRI3_6-0
  6
Continuous
100
AcDbVertex
100
AcDb2dVertex
 10
350.668542
 20
269.7941559164631
 30
0.0
  0
VERTEX
  5
FE5
330
FE1
100
AcDbEntity
  8
MSRI3_6-0
  6
Continuous
100
AcDbVertex
100
AcDb2dVertex
 10
350.668542
 20
278.4544089164631
 30
0.0
  0
VERTEX
  5
FE6
330
FE1
100
AcDbEntity
  8
MSRI3_6-0
  6
Continuous
100
AcDbVertex
100
AcDb2dVertex
 10
343.168542
 20
282.784536916463
 30
0.0
  0
VERTEX
  5
FE7
330
FE1
100
AcDbEntity
  8
MSRI3_6-0
  6
Continuous
100
AcDbVertex
100
AcDb2dVertex
 10
335.668542
 20
278.4544089164631
 30
0.0
  0
VERTEX
  5
FE8
330
FE1
100
AcDbEntity
  8
MSRI3_6-0
  6
Continuous
100
AcDbVertex
100
AcDb2dVertex
 10
335.668542
 20
269.7941559164631
 30
0.0
  0
VERTEX
  5
FE9
330
FE1
100
AcDbEntity
  8
MSRI3_6-0
  6
Continuous
100
AcDbVertex
100
AcDb2dVertex
 10
335.668542
 20
269.7941559164631
 30
0.0
  0
SEQEND
  5
FEA
330
FE1
100
AcDbEntity
  8
MSRI3_6-0
  0
POLYLINE
  5
FEB
330
1A
100
AcDbEntity
  8
MSRI3_6-0
100
AcDb2dPolyline
 66
     1
 10
0.0
 20
0.0
 30
0.0
 70
     1
  0
VERTEX
  5
FEC
330
FEB
100
AcDbEntity
  8
MSRI3_6-0
  6
Continuous
100
AcDbVertex
100
AcDb2dVertex
 10
340.6685415
 20
272.680905916463
 30
0.0
  0
VERTEX
  5
FED
330
FEB
100
AcDbEntity
  8
MSRI3_6-0
  6
Continuous
100
AcDbVertex
100
AcDb2dVertex
 10
343.168542
 20
271.237530916463
 30
0.0
  0
VERTEX
  5
FEE
330
FEB
100
AcDbEntity
  8
MSRI3_6-0
  6
Continuous
100
AcDbVertex
100
AcDb2dVertex
 10
345.6685425000001
 20
272.680905916463
 30
0.0
  0
VERTEX
  5
FEF
330
FEB
100
AcDbEntity
  8
MSRI3_6-0
  6
Continuous
100
AcDbVertex
100
AcDb2dVertex
 10
345.6685425000001
 20
275.567658916463
 30
0.0
  0
VERTEX
  5
FF0
330
FEB
100
AcDbEntity
  8
MSRI3_6-0
  6
Continuous
100
AcDbVertex
100
AcDb2dVertex
 10
343.168542
 20
277.011033916463
 30
0.0
  0
VERTEX
  5
FF1
330
FEB
100
AcDbEntity
  8
MSRI3_6-0
  6
Continuous
100
AcDbVertex
100
AcDb2dVertex
 10
340.6685415
 20
275.567658916463
 30
0.0
  0
VERTEX
  5
FF2
330
FEB
100
AcDbEntity
  8
MSRI3_6-0
  6
Continuous
100
AcDbVertex
100
AcDb2dVertex
 10
340.6685415
 20
272.680905916463
 30
0.0
  0
VERTEX
  5
FF3
330
FEB
100
AcDbEntity
  8
MSRI3_6-0
  6
Continuous
100
AcDbVertex
100
AcDb2dVertex
 10
340.6685415
 20
272.680905916463
 30
0.0
  0
SEQEND
  5
FF4
330
FEB
100
AcDbEntity
  8
MSRI3_6-0
  0
CIRCLE
  5
FF5
330
1A
100
AcDbEntity
  8
MSRI3_6-0
100
AcDbCircle
 10
343.168542
 20
274.1242824164631
 30
0.0
 40
4.9999995
  0
ARC
  5
FF6
330
1A
100
AcDbEntity
  8
MSRI3_6-0
100
AcDbCircle
 10
343.168542
 20
274.1242824164631
 30
0.0
 40
4.5
100
AcDbArc
 50
270.000003
 51
192.809307
  0
LINE
  5
FF7
330
1A
100
AcDbEntity
  8
MSRI3_6-7
100
AcDbLine
 10
343.168542
 20
284.178378916463
 30
0.0
 11
343.168542
 21
263.838534916463
 31
0.0
  0
LINE
  5
FF8
330
1A
100
AcDbEntity
  8
MSRI3_6-2
100
AcDbLine
 10
335.1685425000001
 20
280.6242819164631
 30
0.0
 11
335.1685425000001
 21
280.1242824164631
 31
0.0
  0
CIRCLE
  5
FF9
330
1A
100
AcDbEntity
  8
MSRI3_6-0
100
AcDbCircle
 10
335.668542
 20
286.9521189164631
 30
0.0
 40
2.099999999999999
  0
LINE
  5
FFA
330
1A
100
AcDbEntity
  8
MSRI3_6-0
100
AcDbLine
 10
350.1685425000001
 20
280.1242824164631
 30
0.0
 11
350.1685425000001
 21
278.743083916463
 31
0.0
  0
POINT
  5
FFB
330
1A
100
AcDbEntity
  8
0
 60
     1
100
AcDbPoint
 10
0.0
 20
0.0
 30
0.0
1001
GENIUS_GENBH_13
1002
{
1000
FGO
1005
FFD
1002
}
1001
GENIUS_GENODEF_13
1002
{
1000
HIER
1070
     1
1002
}
1002
{
1000
MANEDIT
1070
     0
1002
}
1002
{
1000
NOSEL
1070
     1
1002
}
1002
{
1000
BEHIND
1070
     0
1002
}
1002
{
1000
REACTOR
1002
}
1001
GENIUS_GENOBJ-NBEHI-BHB_13
1002
{
1000
OWNER
1000
GENBEHI
1002
}
1001
GENIUS_GENOENT_13
1002
{
1000
MYREF
1005
FFB
1002
}
1002
{
1000
GRP
1005
0
1002
}
1001
GENIUS_GENOLIS_13
1002
{
1000
ENT
1005
E38
1005
E31
1002
}
  0
POINT
  5
FFC
330
1A
100
AcDbEntity
  8
0
 60
     1
100
AcDbPoint
 10
0.0
 20
0.0
 30
0.0
1001
GENIUS_GENODEF_13
1002
{
1000
HIER
1070
   200
1002
}
1002
{
1000
MANEDIT
1070
     0
1002
}
1002
{
1000
NOSEL
1070
     0
1002
}
1002
{
1000
BEHIND
1070
     0
1002
}
1002
{
1000
REACTOR
1002
}
1001
GENIUS_GENOBJ-F-PART_13
1002
{
1000
OWNER
1000
GEF
1002
}
1001
GENIUS_GEFSTDP_13
1002
{
1000
DSC
1000
DSC
1002
{
1000
~DESCR
1000
 
1000
~STDRT
1002
}
1002
}
1002
{
1000
SUG
1000
M
1040
8.0
1002
}
1002
{
1000
KEY
1000
THRT
1002
}
1002
{
1000
INS
1002
{
1040
160.3405829999999
1040
101.2662075
1040
0.0
1002
}
1002
}
1002
{
1000
ANG
1040
0.0
1002
}
1002
{
1000
VCC
1002
{
1000
$PRE=M
1000
$NND=8.000000000000000E+00
1000
-RBDESCR
1000
-RBSTDRT
1000
-RBGD1
1000
-RBLOTI
1000
-V$PV_GENSYSTEM"gef\val\di\0401\di1616_d.dxf"
1000
$VCC_TABLE=$PV_GENSYSTEM"gef\val\di\0401\di1616.val"
1000
$GEF_CDIST=3.000000000000000E+00
1000
$GEF_DRAG=1
1000
$GEF_STANG=2.100000000000000E+02
1000
$GEF_OANG=7.000000000000000E+01
1000
$GEVPROMPTX= Länge: 
1000
$GEF_SNK_ADD=0.000000000000000E+00
1000
$GEF_FLIPX=1
1000
$GEF_FLIPY=1
1000
-GRPNAME0?
1000
-GRPNAME1?
1000
-BAML2
1000
$GEF_PROCALC=1
1002
}
1002
}
1002
{
1000
LST
1002
{
1002
{
1000
GROUP
1000
0401
1002
}
1002
{
1000
VIEW
1000
D
1002
}
1002
{
1000
SFILE
1000
$PV_GENSYSTEM"gef\val\di\0401\di1616_d.dxf"
1002
}
1002
{
1000
ST1
1000
$PV_GENSYSTEM"gef\val\di\0401\di1616.val"
1002
}
1002
{
1000
GENASSO
1000
 
1002
}
1002
}
1002
}
1002
{
1000
RET
1002
{
1002
{
1000
LOTI
1002
}
1002
{
1000
GD1
1000
6.647
1002
}
1002
{
1000
STDRT
1000
DIN 13 - M8
1002
}
1002
{
1000
DESCR
1000
Metrisches ISO-Gewinde
1002
}
1002
}
1002
}
1002
{
1000
SYSTEM
1040
1.0
1002
}
1002
{
1000
INFEL
1002
{
1002
}
1002
}
1001
GENIUS_GENOENT_13
1002
{
1000
MYREF
1005
FFC
1002
}
1002
{
1000
GRP
1005
0
1002
}
1001
GENIUS_GENOLIS_13
1002
{
1000
ENT
1005
E2A
1002
}
  0
POINT
  5
FFD
330
1A
100
AcDbEntity
  8
0
 60
     1
100
AcDbPoint
 10
0.0
 20
0.0
 30
0.0
1001
GENIUS_GENBH_13
1002
{
1000
BGO
1005
FFB
1002
}
1002
{
1000
FGLEVEL
1040
1.000000009999999
1002
}
1002
{
1000
FLAGS
1070
    36
1002
}
1002
{
1000
OIUMAP
1000
OIU
1002
}
1002
{
1000
MODIFY
1070
     0
1002
}
1001
GENIUS_GENODEF_13
1002
{
1000
HIER
1070
     1
1002
}
1002
{
1000
MANEDIT
1070
     0
1002
}
1002
{
1000
NOSEL
1070
     1
1002
}
1002
{
1000
BEHIND
1070
     0
1002
}
1002
{
1000
REACTOR
1002
}
1001
GENIUS_GENOBJ-NBEHI-BHF_13
1002
{
1000
OWNER
1000
GENBEHI
1002
}
1001
GENIUS_GENOENT_13
1002
{
1000
MYREF
1005
FFD
1002
}
1002
{
1000
GRP
1005
0
1002
}
1001
GENIUS_GENOLIS_13
1002
{
1000
ENT
1005
E2A
1002
}
  0
POINT
  5
FFE
330
1A
100
AcDbEntity
  8
0
 60
     1
100
AcDbPoint
 10
0.0
 20
0.0
 30
0.0
1001
GENIUS_GENBH_13
1002
{
1000
FGO
1005
1000
1002
}
1001
GENIUS_GENODEF_13
1002
{
1000
HIER
1070
     1
1002
}
1002
{
1000
MANEDIT
1070
     0
1002
}
1002
{
1000
NOSEL
1070
     1
1002
}
1002
{
1000
BEHIND
1070
     0
1002
}
1002
{
1000
REACTOR
1002
}
1001
GENIUS_GENOBJ-NBEHI-BHB_13
1002
{
1000
OWNER
1000
GENBEHI
1002
}
1001
GENIUS_GENOENT_13
1002
{
1000
MYREF
1005
FFE
1002
}
1002
{
1000
GRP
1005
0
1002
}
1001
GENIUS_GENOLIS_13
1002
{
1000
ENT
1005
E18
1005
E16
1002
}
  0
POINT
  5
FFF
330
1A
100
AcDbEntity
  8
0
 60
     1
100
AcDbPoint
 10
0.0
 20
0.0
 30
0.0
1001
GENIUS_GENODEF_13
1002
{
1000
HIER
1070
   200
1002
}
1002
{
1000
MANEDIT
1070
     0
1002
}
1002
{
1000
NOSEL
1070
     0
1002
}
1002
{
1000
BEHIND
1070
     0
1002
}
1002
{
1000
REACTOR
1002
}
1001
GENIUS_GENOBJ-F-PART_13
1002
{
1000
OWNER
1000
GEF
1002
}
1001
GENIUS_GEFSTDP_13
1002
{
1000
SUG
1000
M
1040
8.0
1002
}
1002
{
1000
DSC
1000
DSC
1002
{
1000
~DESCR
1000
 
1000
~STDRT
1002
}
1002
}
1002
{
1000
KEY
1000
THRT
1002
}
1002
{
1000
INS
1002
{
1040
160.3405829999999
1040
53.266206
1040
0.0
1002
}
1002
}
1002
{
1000
ANG
1040
0.0
1002
}
1002
{
1000
VCC
1002
{
1000
$PRE=M
1000
$NND=8.000000000000000E+00
1000
-RBDESCR
1000
-RBSTDRT
1000
-RBGD1
1000
-RBLOTI
1000
-V$PV_GENSYSTEM"gef\val\di\0401\di1616_d.dxf"
1000
$VCC_TABLE=$PV_GENSYSTEM"gef\val\di\0401\di1616.val"
1000
$GEF_CDIST=3.000000000000000E+00
1000
$GEF_DRAG=1
1000
$GEF_STANG=2.100000000000000E+02
1000
$GEF_OANG=7.000000000000000E+01
1000
$GEVPROMPTX= Länge: 
1000
$GEF_SNK_ADD=0.000000000000000E+00
1000
$GEF_FLIPX=1
1000
$GEF_FLIPY=1
1000
-GRPNAME0?
1000
-GRPNAME1?
1000
-BAML2
1000
$GEF_PROCALC=1
1002
}
1002
}
1002
{
1000
LST
1002
{
1002
{
1000
GROUP
1000
0401
1002
}
1002
{
1000
VIEW
1000
D
1002
}
1002
{
1000
SFILE
1000
$PV_GENSYSTEM"gef\val\di\0401\di1616_d.dxf"
1002
}
1002
{
1000
ST1
1000
$PV_GENSYSTEM"gef\val\di\0401\di1616.val"
1002
}
1002
{
1000
GENASSO
1000
 
1002
}
1002
}
1002
}
1002
{
1000
RET
1002
{
1002
{
1000
LOTI
1002
}
1002
{
1000
GD1
1000
6.647
1002
}
1002
{
1000
STDRT
1000
DIN 13 - M8
1002
}
1002
{
1000
DESCR
1000
Metrisches ISO-Gewinde
1002
}
1002
}
1002
}
1002
{
1000
SYSTEM
1040
1.0
1002
}
1002
{
1000
INFEL
1002
{
1002
}
1002
}
1001
GENIUS_GENOENT_13
1002
{
1000
MYREF
1005
FFF
1002
}
1002
{
1000
GRP
1005
0
1002
}
1001
GENIUS_GENOLIS_13
1002
{
1000
ENT
1005
E15
1002
}
  0
POINT
  5
1000
330
1A
100
AcDbEntity
  8
0
 60
     1
100
AcDbPoint
 10
0.0
 20
0.0
 30
0.0
1001
GENIUS_GENBH_13
1002
{
1000
BGO
1005
FFE
1002
}
1002
{
1000
FGLEVEL
1040
4.000000009999999
1002
}
1002
{
1000
FLAGS
1070
    36
1002
}
1002
{
1000
OIUMAP
1000
OIU
1002
}
1002
{
1000
MODIFY
1070
     0
1002
}
1001
GENIUS_GENODEF_13
1002
{
1000
HIER
1070
     1
1002
}
1002
{
1000
MANEDIT
1070
     0
1002
}
1002
{
1000
NOSEL
1070
     1
1002
}
1002
{
1000
BEHIND
1070
     0
1002
}
1002
{
1000
REACTOR
1002
}
1001
GENIUS_GENOBJ-NBEHI-BHF_13
1002
{
1000
OWNER
1000
GENBEHI
1002
}
1001
GENIUS_GENOENT_13
1002
{
1000
MYREF
1005
1000
1002
}
1002
{
1000
GRP
1005
0
1002
}
1001
GENIUS_GENOLIS_13
1002
{
1000
ENT
1005
E15
1002
}
  0
POINT
  5
1001
330
1A
100
AcDbEntity
  8
0
 60
     1
100
AcDbPoint
 10
0.0
 20
0.0
 30
0.0
1001
GENIUS_GENBH_13
1002
{
1000
FGO
1005
1004
1002
}
1001
GENIUS_GENODEF_13
1002
{
1000
HIER
1070
     1
1002
}
1002
{
1000
MANEDIT
1070
     0
1002
}
1002
{
1000
NOSEL
1070
     1
1002
}
1002
{
1000
BEHIND
1070
     0
1002
}
1002
{
1000
REACTOR
1002
}
1001
GENIUS_GENOBJ-NBEHI-BHB_13
1002
{
1000
OWNER
1000
GENBEHI
1002
}
1001
GENIUS_GENOENT_13
1002
{
1000
MYREF
1005
1001
1002
}
1002
{
1000
GRP
1005
0
1002
}
1001
GENIUS_GENOLIS_13
1002
{
1000
ENT
1005
F0E
1005
DD5
1002
}
  0
POINT
  5
1002
330
1A
100
AcDbEntity
  8
0
 60
     1
100
AcDbPoint
 10
0.0
 20
0.0
 30
0.0
1001
GENIUS_GENBH_13
1002
{
1000
FGO
1005
1006
1002
}
1001
GENIUS_GENODEF_13
1002
{
1000
HIER
1070
     1
1002
}
1002
{
1000
MANEDIT
1070
     0
1002
}
1002
{
1000
NOSEL
1070
     1
1002
}
1002
{
1000
BEHIND
1070
     0
1002
}
1002
{
1000
REACTOR
1002
}
1001
GENIUS_GENOBJ-NBEHI-BHB_13
1002
{
1000
OWNER
1000
GENBEHI
1002
}
1001
GENIUS_GENOENT_13
1002
{
1000
MYREF
1005
1002
1002
}
1002
{
1000
GRP
1005
0
1002
}
1001
GENIUS_GENOLIS_13
1002
{
1000
ENT
1005
DD4
1005
F02
1002
}
  0
POINT
  5
1003
330
1A
100
AcDbEntity
  8
0
 60
     1
100
AcDbPoint
 10
0.0
 20
0.0
 30
0.0
1001
GENIUS_GENODEF_13
1002
{
1000
HIER
1070
   200
1002
}
1002
{
1000
MANEDIT
1070
     0
1002
}
1002
{
1000
NOSEL
1070
     0
1002
}
1002
{
1000
BEHIND
1070
     0
1002
}
1002
{
1000
REACTOR
1002
}
1001
GENIUS_GENOBJ-F-PART_13
1002
{
1000
OWNER
1000
GEF
1002
}
1001
GENIUS_GEFSTDP_13
1002
{
1000
SUG
1000
M
1040
8.0
1002
}
1002
{
1000
DSC
1000
DSC
1002
{
1000
~DESCR
1000
 
1000
~STDRT
1002
}
1002
}
1002
{
1000
KEY
1000
THRT
1002
}
1002
{
1000
INS
1002
{
1040
208.3405845
1040
101.2662075
1040
0.0
1002
}
1002
}
1002
{
1000
ANG
1040
0.0
1002
}
1002
{
1000
VCC
1002
{
1000
$PRE=M
1000
$NND=8.000000000000000E+00
1000
-RBDESCR
1000
-RBSTDRT
1000
-RBGD1
1000
-RBLOTI
1000
-V$PV_GENSYSTEM"gef\val\di\0401\di1616_d.dxf"
1000
$VCC_TABLE=$PV_GENSYSTEM"gef\val\di\0401\di1616.val"
1000
$GEF_CDIST=3.000000000000000E+00
1000
$GEF_DRAG=1
1000
$GEF_STANG=2.100000000000000E+02
1000
$GEF_OANG=7.000000000000000E+01
1000
$GEVPROMPTX= Länge: 
1000
$GEF_SNK_ADD=0.000000000000000E+00
1000
$GEF_FLIPX=1
1000
$GEF_FLIPY=1
1000
-GRPNAME0?
1000
-GRPNAME1?
1000
-BAML2
1000
$GEF_PROCALC=1
1002
}
1002
}
1002
{
1000
LST
1002
{
1002
{
1000
GROUP
1000
0401
1002
}
1002
{
1000
VIEW
1000
D
1002
}
1002
{
1000
SFILE
1000
$PV_GENSYSTEM"gef\val\di\0401\di1616_d.dxf"
1002
}
1002
{
1000
ST1
1000
$PV_GENSYSTEM"gef\val\di\0401\di1616.val"
1002
}
1002
{
1000
GENASSO
1000
 
1002
}
1002
}
1002
}
1002
{
1000
RET
1002
{
1002
{
1000
LOTI
1002
}
1002
{
1000
GD1
1000
6.647
1002
}
1002
{
1000
STDRT
1000
DIN 13 - M8
1002
}
1002
{
1000
DESCR
1000
Metrisches ISO-Gewinde
1002
}
1002
}
1002
}
1002
{
1000
SYSTEM
1040
1.0
1002
}
1002
{
1000
INFEL
1002
{
1002
}
1002
}
1001
GENIUS_GENOENT_13
1002
{
1000
MYREF
1005
1003
1002
}
1002
{
1000
GRP
1005
0
1002
}
1001
GENIUS_GENOLIS_13
1002
{
1000
ENT
1005
DBC
1002
}
  0
POINT
  5
1004
330
1A
100
AcDbEntity
  8
0
 60
     1
100
AcDbPoint
 10
0.0
 20
0.0
 30
0.0
1001
GENIUS_GENBH_13
1002
{
1000
BGO
1005
1001
1002
}
1002
{
1000
FGLEVEL
1040
2.000000009999999
1002
}
1002
{
1000
FLAGS
1070
    36
1002
}
1002
{
1000
OIUMAP
1000
OIU
1002
}
1002
{
1000
MODIFY
1070
     0
1002
}
1001
GENIUS_GENODEF_13
1002
{
1000
HIER
1070
     1
1002
}
1002
{
1000
MANEDIT
1070
     0
1002
}
1002
{
1000
NOSEL
1070
     1
1002
}
1002
{
1000
BEHIND
1070
     0
1002
}
1002
{
1000
REACTOR
1002
}
1001
GENIUS_GENOBJ-NBEHI-BHF_13
1002
{
1000
OWNER
1000
GENBEHI
1002
}
1001
GENIUS_GENOENT_13
1002
{
1000
MYREF
1005
1004
1002
}
1002
{
1000
GRP
1005
0
1002
}
1001
GENIUS_GENOLIS_13
1002
{
1000
ENT
1005
DBC
1002
}
  0
POINT
  5
1005
330
1A
100
AcDbEntity
  8
0
 60
     1
100
AcDbPoint
 10
0.0
 20
0.0
 30
0.0
1001
GENIUS_GENODEF_13
1002
{
1000
HIER
1070
   200
1002
}
1002
{
1000
MANEDIT
1070
     0
1002
}
1002
{
1000
NOSEL
1070
     0
1002
}
1002
{
1000
BEHIND
1070
     0
1002
}
1002
{
1000
REACTOR
1002
}
1001
GENIUS_GENOBJ-F-PART_13
1002
{
1000
OWNER
1000
GEF
1002
}
1001
GENIUS_GEFSTDP_13
1002
{
1000
SUG
1000
M
1040
8.0
1002
}
1002
{
1000
DSC
1000
DSC
1002
{
1000
~DESCR
1000
 
1000
~STDRT
1002
}
1002
}
1002
{
1000
KEY
1000
THRT
1002
}
1002
{
1000
INS
1002
{
1040
208.3405845
1040
53.266206
1040
0.0
1002
}
1002
}
1002
{
1000
ANG
1040
0.0
1002
}
1002
{
1000
VCC
1002
{
1000
$PRE=M
1000
$NND=8.000000000000000E+00
1000
-RBDESCR
1000
-RBSTDRT
1000
-RBGD1
1000
-RBLOTI
1000
-V$PV_GENSYSTEM"gef\val\di\0401\di1616_d.dxf"
1000
$VCC_TABLE=$PV_GENSYSTEM"gef\val\di\0401\di1616.val"
1000
$GEF_CDIST=3.000000000000000E+00
1000
$GEF_DRAG=1
1000
$GEF_STANG=2.100000000000000E+02
1000
$GEF_OANG=7.000000000000000E+01
1000
$GEVPROMPTX= Länge: 
1000
$GEF_SNK_ADD=0.000000000000000E+00
1000
$GEF_FLIPX=1
1000
$GEF_FLIPY=1
1000
-GRPNAME0?
1000
-GRPNAME1?
1000
-BAML2
1000
$GEF_PROCALC=1
1002
}
1002
}
1002
{
1000
LST
1002
{
1002
{
1000
GROUP
1000
0401
1002
}
1002
{
1000
VIEW
1000
D
1002
}
1002
{
1000
SFILE
1000
$PV_GENSYSTEM"gef\val\di\0401\di1616_d.dxf"
1002
}
1002
{
1000
ST1
1000
$PV_GENSYSTEM"gef\val\di\0401\di1616.val"
1002
}
1002
{
1000
GENASSO
1000
 
1002
}
1002
}
1002
}
1002
{
1000
RET
1002
{
1002
{
1000
LOTI
1002
}
1002
{
1000
GD1
1000
6.647
1002
}
1002
{
1000
STDRT
1000
DIN 13 - M8
1002
}
1002
{
1000
DESCR
1000
Metrisches ISO-Gewinde
1002
}
1002
}
1002
}
1002
{
1000
SYSTEM
1040
1.0
1002
}
1002
{
1000
INFEL
1002
{
1002
}
1002
}
1001
GENIUS_GENOENT_13
1002
{
1000
MYREF
1005
1005
1002
}
1002
{
1000
GRP
1005
0
1002
}
1001
GENIUS_GENOLIS_13
1002
{
1000
ENT
1005
DBB
1002
}
  0
POINT
  5
1006
330
1A
100
AcDbEntity
  8
0
 60
     1
100
AcDbPoint
 10
0.0
 20
0.0
 30
0.0
1001
GENIUS_GENBH_13
1002
{
1000
BGO
1005
1002
1002
}
1002
{
1000
FGLEVEL
1040
3.000000009999999
1002
}
1002
{
1000
FLAGS
1070
    36
1002
}
1002
{
1000
OIUMAP
1000
OIU
1002
}
1002
{
1000
MODIFY
1070
     0
1002
}
1001
GENIUS_GENODEF_13
1002
{
1000
HIER
1070
     1
1002
}
1002
{
1000
MANEDIT
1070
     0
1002
}
1002
{
1000
NOSEL
1070
     1
1002
}
1002
{
1000
BEHIND
1070
     0
1002
}
1002
{
1000
REACTOR
1002
}
1001
GENIUS_GENOBJ-NBEHI-BHF_13
1002
{
1000
OWNER
1000
GENBEHI
1002
}
1001
GENIUS_GENOENT_13
1002
{
1000
MYREF
1005
1006
1002
}
1002
{
1000
GRP
1005
0
1002
}
1001
GENIUS_GENOLIS_13
1002
{
1000
ENT
1005
DBB
1002
}
  0
ENDSEC
  0
SECTION
  2
OBJECTS
  0
DICTIONARY
  5
C
330
0
100
AcDbDictionary
281
     1
  3
ACAD_COLOR
350
1075
  3
ACAD_GROUP
350
D
  3
ACAD_LAYOUT
350
109D
  3
ACAD_MATERIAL
350
104B
  3
ACAD_MLEADERSTYLE
350
109A
  3
ACAD_MLINESTYLE
350
E
  3
ACAD_PLOTSETTINGS
350
109E
  3
ACAD_PLOTSTYLENAME
350
1049
  3
ACAD_SCALELIST
350
1078
  3
ACAD_TABLESTYLE
350
1076
  3
ACAD_VISUALSTYLE
350
1064
  3
ACDB_RECOMPOSE_DATA
350
1158
  3
AcDbVariableDictionary
350
114F
  3
AcmDictionary
350
10FF
  3
AcmSystemVariableManager
350
1166
  3
AMG
350
10A4
  3
AMGSNAPSETTINGS
350
1148
  3
DWGPROPS
350
1159
  0
DICTIONARY
  5
1075
102
{ACAD_REACTORS
330
C
102
}
330
C
100
AcDbDictionary
281
     1
  0
DICTIONARY
  5
D
102
{ACAD_REACTORS
330
C
102
}
330
C
100
AcDbDictionary
281
     1
  0
DICTIONARY
  5
109D
102
{ACAD_REACTORS
330
C
102
}
330
C
100
AcDbDictionary
281
     1
  3
Layout1
350
10A0
  3
Model
350
109F
  0
DICTIONARY
  5
104B
102
{ACAD_REACTORS
330
C
102
}
330
C
100
AcDbDictionary
281
     1
  3
ByBlock
350
1054
  3
ByLayer
350
104C
  3
Global
350
105C
  0
DICTIONARY
  5
109A
102
{ACAD_REACTORS
330
C
102
}
330
C
100
AcDbDictionary
281
     1
  3
Standard
350
109B
  0
DICTIONARY
  5
E
102
{ACAD_REACTORS
330
C
102
}
330
C
100
AcDbDictionary
281
     1
  3
STANDARD
350
13
  0
DICTIONARY
  5
109E
102
{ACAD_REACTORS
330
C
102
}
330
C
100
AcDbDictionary
281
     1
  0
ACDBDICTIONARYWDFLT
  5
1049
102
{ACAD_REACTORS
330
C
102
}
330
C
100
AcDbDictionary
281
     1
  3
Normal
350
104A
100
AcDbDictionaryWithDefault
340
104A
  0
DICTIONARY
  5
1078
102
{ACAD_REACTORS
330
C
102
}
330
C
100
AcDbDictionary
281
     1
  3
A0
350
1079
  3
A1
350
107A
  3
A2
350
107B
  3
A3
350
107C
  3
A4
350
107D
  3
A5
350
107E
  3
A6
350
107F
  3
A7
350
1080
  3
A8
350
1081
  3
A9
350
1082
  3
B0
350
1083
  3
B1
350
1084
  3
B2
350
1085
  3
B3
350
1086
  3
B4
350
1087
  3
B5
350
1088
  3
B6
350
1089
  3
B7
350
108A
  3
B8
350
108B
  3
B9
350
108C
  3
C0
350
108D
  3
C1
350
108E
  3
C2
350
108F
  3
C3
350
1090
  3
C4
350
1091
  3
C5
350
1092
  3
C6
350
1093
  3
C7
350
1094
  3
C8
350
1095
  3
C9
350
1096
  3
D0
350
1097
  3
D1
350
1098
  3
D2
350
1099
  0
DICTIONARY
  5
1076
102
{ACAD_REACTORS
330
C
102
}
330
C
100
AcDbDictionary
281
     1
  3
Standard
350
1077
  0
DICTIONARY
  5
1064
102
{ACAD_REACTORS
330
C
102
}
330
C
100
AcDbDictionary
281
     1
  3
2dWireframe
350
106A
  3
3D Hidden
350
106C
  3
3dWireframe
350
106B
  3
Basic
350
1069
  3
Brighten
350
1070
  3
ColorChange
350
1074
  3
Conceptual
350
106D
  3
Dim
350
106F
  3
Facepattern
350
1073
  3
Flat
350
1065
  3
FlatWithEdges
350
1066
  3
Gouraud
350
1067
  3
GouraudWithEdges
350
1068
  3
Linepattern
350
1072
  3
Realistic
350
106E
  3
Thicken
350
1071
  0
XRECORD
  5
1158
102
{ACAD_REACTORS
330
C
102
}
330
C
100
AcDbXrecord
280
     1
 90
        1
330
1077
  0
DICTIONARY
  5
114F
102
{ACAD_REACTORS
330
C
102
}
330
C
100
AcDbDictionary
281
     1
  3
CANNOSCALE
350
1152
  3
CMLEADERSTYLE
350
1151
  3
CTABLESTYLE
350
1150
  3
DIMASSOC
350
1155
  3
INDEXCTL
350
1154
  3
SORTENTS
350
1153
  0
DICTIONARY
  5
10FF
102
{ACAD_REACTORS
330
C
102
}
330
C
100
AcDbDictionary
281
     1
  3
AcmStdDictionary
350
110A
  0
DICTIONARY
  5
10A4
102
{ACAD_REACTORS
330
C
102
}
330
C
100
AcDbDictionary
281
     1
  0
DICTIONARY
  5
1148
102
{ACAD_REACTORS
330
C
102
}
330
C
100
AcDbDictionary
281
     1
  0
XRECORD
  5
1159
102
{ACAD_REACTORS
330
C
102
}
330
C
100
AcDbXrecord
280
     1
  1
DWGPROPS COOKIE
  2

  3

  4

  6

  7

  8
bauer_sven
  9

300
=
301
=
302
=
303
=
304
=
305
=
306
=
307
=
308
=
309
=
 40
0.021310462962963
 41
2450847.345218565
 42
2456226.383451713
  1

 90
        0
  0
LAYOUT
  5
10A0
102
{ACAD_XDICTIONARY
360
1160
102
}
102
{ACAD_REACTORS
330
109D
102
}
330
109D
100
AcDbPlotSettings
  1

  2
iR 2570CN-010
  4

  6

 40
0.0
 41
0.0
 42
0.0
 43
0.0
 44
0.0
 45
0.0
 46
0.0
 47
0.0
 48
0.0
 49
0.0
140
0.0
141
0.0
142
1.0
143
1.0
 70
   688
 72
     0
 73
     0
 74
     5
  7

 75
    16
147
1.0
148
0.0
149
0.0
100
AcDbLayout
  1
Layout1
 70
     1
 71
     1
 10
0.0
 20
0.0
 11
12.0
 21
9.0
 12
0.0
 22
0.0
 32
0.0
 14
1.000000000000000E+20
 24
1.000000000000000E+20
 34
1.000000000000000E+20
 15
-1.000000000000000E+20
 25
-1.000000000000000E+20
 35
-1.000000000000000E+20
146
0.0
 13
0.0
 23
0.0
 33
0.0
 16
1.0
 26
0.0
 36
0.0
 17
0.0
 27
1.0
 37
0.0
 76
     0
330
17
  0
LAYOUT
  5
109F
102
{ACAD_XDICTIONARY
360
115E
102
}
102
{ACAD_REACTORS
330
109D
102
}
330
109D
100
AcDbPlotSettings
  1

  2
iR 2570CN-010
  4

  6

 40
0.0
 41
0.0
 42
0.0
 43
0.0
 44
0.0
 45
0.0
 46
0.0
 47
0.0
 48
0.0
 49
0.0
140
0.0
141
0.0
142
1.0
143
1.0
 70
  1712
 72
     0
 73
     0
 74
     0
  7

 75
     0
147
1.0
148
0.0
149
0.0
100
AcDbLayout
  1
Model
 70
     1
 71
     0
 10
0.0
 20
0.0
 11
12.0
 21
9.0
 12
0.0
 22
0.0
 32
0.0
 14
0.0
 24
0.0
 34
0.0
 15
0.0
 25
0.0
 35
0.0
146
0.0
 13
0.0
 23
0.0
 33
0.0
 16
1.0
 26
0.0
 36
0.0
 17
0.0
 27
1.0
 37
0.0
 76
     0
330
1A
331
1047
  0
MATERIAL
  5
1054
102
{ACAD_XDICTIONARY
360
1055
102
}
102
{ACAD_REACTORS
330
104B
102
}
330
104B
100
AcDbMaterial
  1
ByBlock
 72
     0
 43
0.0208333333333333
 43
0.0
 43
0.0
 43
0.0
 43
0.0
 43
0.0208333333333333
 43
0.0
 43
0.0
 43
0.0
 43
0.0
 43
1.0
 43
0.0
 43
0.0
 43
0.0
 43
0.0
 43
1.0
 77
     0
 47
0.0208333333333333
 47
0.0
 47
0.0
 47
0.0
 47
0.0
 47
0.0208333333333333
 47
0.0
 47
0.0
 47
0.0
 47
0.0
 47
1.0
 47
0.0
 47
0.0
 47
0.0
 47
0.0
 47
1.0
171
     0
 49
0.0208333333333333
 49
0.0
 49
0.0
 49
0.0
 49
0.0
 49
0.0208333333333333
 49
0.0
 49
0.0
 49
0.0
 49
0.0
 49
1.0
 49
0.0
 49
0.0
 49
0.0
 49
0.0
 49
1.0
175
     0
142
0.0208333333333333
142
0.0
142
0.0
142
0.0
142
0.0
142
0.0208333333333333
142
0.0
142
0.0
142
0.0
142
0.0
142
1.0
142
0.0
142
0.0
142
0.0
142
0.0
142
1.0
179
     0
144
0.0208333333333333
144
0.0
144
0.0
144
0.0
144
0.0
144
0.0208333333333333
144
0.0
144
0.0
144
0.0
144
0.0
144
1.0
144
0.0
144
0.0
144
0.0
144
0.0
144
1.0
147
0.0208333333333333
147
0.0
147
0.0
147
0.0
147
0.0
147
0.0208333333333333
147
0.0
147
0.0
147
0.0
147
0.0
147
1.0
147
0.0
147
0.0
147
0.0
147
0.0
147
1.0
  0
MATERIAL
  5
104C
102
{ACAD_XDICTIONARY
360
104D
102
}
102
{ACAD_REACTORS
330
104B
102
}
330
104B
100
AcDbMaterial
  1
ByLayer
 72
     0
 43
0.0208333333333333
 43
0.0
 43
0.0
 43
0.0
 43
0.0
 43
0.0208333333333333
 43
0.0
 43
0.0
 43
0.0
 43
0.0
 43
1.0
 43
0.0
 43
0.0
 43
0.0
 43
0.0
 43
1.0
 77
     0
 47
0.0208333333333333
 47
0.0
 47
0.0
 47
0.0
 47
0.0
 47
0.0208333333333333
 47
0.0
 47
0.0
 47
0.0
 47
0.0
 47
1.0
 47
0.0
 47
0.0
 47
0.0
 47
0.0
 47
1.0
171
     0
 49
0.0208333333333333
 49
0.0
 49
0.0
 49
0.0
 49
0.0
 49
0.0208333333333333
 49
0.0
 49
0.0
 49
0.0
 49
0.0
 49
1.0
 49
0.0
 49
0.0
 49
0.0
 49
0.0
 49
1.0
175
     0
142
0.0208333333333333
142
0.0
142
0.0
142
0.0
142
0.0
142
0.0208333333333333
142
0.0
142
0.0
142
0.0
142
0.0
142
1.0
142
0.0
142
0.0
142
0.0
142
0.0
142
1.0
179
     0
144
0.0208333333333333
144
0.0
144
0.0
144
0.0
144
0.0
144
0.0208333333333333
144
0.0
144
0.0
144
0.0
144
0.0
144
1.0
144
0.0
144
0.0
144
0.0
144
0.0
144
1.0
147
0.0208333333333333
147
0.0
147
0.0
147
0.0
147
0.0
147
0.0208333333333333
147
0.0
147
0.0
147
0.0
147
0.0
147
1.0
147
0.0
147
0.0
147
0.0
147
0.0
147
1.0
  0
MATERIAL
  5
105C
102
{ACAD_XDICTIONARY
360
105D
102
}
102
{ACAD_REACTORS
330
104B
102
}
330
104B
100
AcDbMaterial
  1
Global
 72
     0
 43
0.0208333333333333
 43
0.0
 43
0.0
 43
0.0
 43
0.0
 43
0.0208333333333333
 43
0.0
 43
0.0
 43
0.0
 43
0.0
 43
1.0
 43
0.0
 43
0.0
 43
0.0
 43
0.0
 43
1.0
 77
     0
 47
0.0208333333333333
 47
0.0
 47
0.0
 47
0.0
 47
0.0
 47
0.0208333333333333
 47
0.0
 47
0.0
 47
0.0
 47
0.0
 47
1.0
 47
0.0
 47
0.0
 47
0.0
 47
0.0
 47
1.0
171
     0
 49
0.0208333333333333
 49
0.0
 49
0.0
 49
0.0
 49
0.0
 49
0.0208333333333333
 49
0.0
 49
0.0
 49
0.0
 49
0.0
 49
1.0
 49
0.0
 49
0.0
 49
0.0
 49
0.0
 49
1.0
175
     0
142
0.0208333333333333
142
0.0
142
0.0
142
0.0
142
0.0
142
0.0208333333333333
142
0.0
142
0.0
142
0.0
142
0.0
142
1.0
142
0.0
142
0.0
142
0.0
142
0.0
142
1.0
179
     0
144
0.0208333333333333
144
0.0
144
0.0
144
0.0
144
0.0
144
0.0208333333333333
144
0.0
144
0.0
144
0.0
144
0.0
144
1.0
144
0.0
144
0.0
144
0.0
144
0.0
144
1.0
147
0.0208333333333333
147
0.0
147
0.0
147
0.0
147
0.0
147
0.0208333333333333
147
0.0
147
0.0
147
0.0
147
0.0
147
1.0
147
0.0
147
0.0
147
0.0
147
0.0
147
1.0
  0
MLEADERSTYLE
  5
109B
102
{ACAD_REACTORS
330
109A
102
}
330
109A
100
AcDbMLeaderStyle
170
     2
171
     1
172
     0
 90
        2
 40
0.0
 41
0.0
173
     1
 91
-1056964608
340
14
 92
       -2
290
     1
 42
0.09
291
     1
 43
0.36
  3
Standard
 44
0.18
300

342
10
174
     1
178
     6
175
     1
176
     0
 93
-1056964608
 45
0.18
292
     0
297
     0
 46
0.18
 94
-1056964608
 47
1.0
 49
1.0
140
1.0
293
     1
141
0.0
294
     1
177
     0
142
1.0
295
     0
296
     0
143
0.125
1001
ACAD_MLEADERVER
1070
     2
  0
MLINESTYLE
  5
13
102
{ACAD_REACTORS
330
E
102
}
330
E
100
AcDbMlineStyle
  2
STANDARD
 70
     0
  3

 62
     0
 51
90.0
 52
90.0
 71
     2
 49
0.5
 62
   256
  6
BYLAYER
 49
-0.5
 62
   256
  6
BYLAYER
  0
ACDBPLACEHOLDER
  5
104A
102
{ACAD_REACTORS
330
1049
102
}
330
1049
  0
SCALE
  5
1079
102
{ACAD_REACTORS
330
1078
102
}
330
1078
100
AcDbScale
 70
     0
300
1:1
140
1.0
141
1.0
290
     1
  0
SCALE
  5
107A
102
{ACAD_REACTORS
330
1078
102
}
330
1078
100
AcDbScale
 70
     0
300
1:2
140
1.0
141
2.0
290
     0
  0
SCALE
  5
107B
102
{ACAD_REACTORS
330
1078
102
}
330
1078
100
AcDbScale
 70
     0
300
1:4
140
1.0
141
4.0
290
     0
  0
SCALE
  5
107C
102
{ACAD_REACTORS
330
1078
102
}
330
1078
100
AcDbScale
 70
     0
300
1:5
140
1.0
141
5.0
290
     0
  0
SCALE
  5
107D
102
{ACAD_REACTORS
330
1078
102
}
330
1078
100
AcDbScale
 70
     0
300
1:8
140
1.0
141
8.0
290
     0
  0
SCALE
  5
107E
102
{ACAD_REACTORS
330
1078
102
}
330
1078
100
AcDbScale
 70
     0
300
1:10
140
1.0
141
10.0
290
     0
  0
SCALE
  5
107F
102
{ACAD_REACTORS
330
1078
102
}
330
1078
100
AcDbScale
 70
     0
300
1:16
140
1.0
141
16.0
290
     0
  0
SCALE
  5
1080
102
{ACAD_REACTORS
330
1078
102
}
330
1078
100
AcDbScale
 70
     0
300
1:20
140
1.0
141
20.0
290
     0
  0
SCALE
  5
1081
102
{ACAD_REACTORS
330
1078
102
}
330
1078
100
AcDbScale
 70
     0
300
1:30
140
1.0
141
30.0
290
     0
  0
SCALE
  5
1082
102
{ACAD_REACTORS
330
1078
102
}
330
1078
100
AcDbScale
 70
     0
300
1:40
140
1.0
141
40.0
290
     0
  0
SCALE
  5
1083
102
{ACAD_REACTORS
330
1078
102
}
330
1078
100
AcDbScale
 70
     0
300
1:50
140
1.0
141
50.0
290
     0
  0
SCALE
  5
1084
102
{ACAD_REACTORS
330
1078
102
}
330
1078
100
AcDbScale
 70
     0
300
1:100
140
1.0
141
100.0
290
     0
  0
SCALE
  5
1085
102
{ACAD_REACTORS
330
1078
102
}
330
1078
100
AcDbScale
 70
     0
300
2:1
140
2.0
141
1.0
290
     0
  0
SCALE
  5
1086
102
{ACAD_REACTORS
330
1078
102
}
330
1078
100
AcDbScale
 70
     0
300
4:1
140
4.0
141
1.0
290
     0
  0
SCALE
  5
1087
102
{ACAD_REACTORS
330
1078
102
}
330
1078
100
AcDbScale
 70
     0
300
8:1
140
8.0
141
1.0
290
     0
  0
SCALE
  5
1088
102
{ACAD_REACTORS
330
1078
102
}
330
1078
100
AcDbScale
 70
     0
300
10:1
140
10.0
141
1.0
290
     0
  0
SCALE
  5
1089
102
{ACAD_REACTORS
330
1078
102
}
330
1078
100
AcDbScale
 70
     0
300
100:1
140
100.0
141
1.0
290
     0
  0
SCALE
  5
108A
102
{ACAD_REACTORS
330
1078
102
}
330
1078
100
AcDbScale
 70
     0
300
1/128" = 1'-0"
140
0.0078125
141
12.0
290
     0
  0
SCALE
  5
108B
102
{ACAD_REACTORS
330
1078
102
}
330
1078
100
AcDbScale
 70
     0
300
1/64" = 1'-0"
140
0.015625
141
12.0
290
     0
  0
SCALE
  5
108C
102
{ACAD_REACTORS
330
1078
102
}
330
1078
100
AcDbScale
 70
     0
300
1/32" = 1'-0"
140
0.03125
141
12.0
290
     0
  0
SCALE
  5
108D
102
{ACAD_REACTORS
330
1078
102
}
330
1078
100
AcDbScale
 70
     0
300
1/16" = 1'-0"
140
0.0625
141
12.0
290
     0
  0
SCALE
  5
108E
102
{ACAD_REACTORS
330
1078
102
}
330
1078
100
AcDbScale
 70
     0
300
3/32" = 1'-0"
140
0.09375
141
12.0
290
     0
  0
SCALE
  5
108F
102
{ACAD_REACTORS
330
1078
102
}
330
1078
100
AcDbScale
 70
     0
300
1/8" = 1'-0"
140
0.125
141
12.0
290
     0
  0
SCALE
  5
1090
102
{ACAD_REACTORS
330
1078
102
}
330
1078
100
AcDbScale
 70
     0
300
3/16" = 1'-0"
140
0.1875
141
12.0
290
     0
  0
SCALE
  5
1091
102
{ACAD_REACTORS
330
1078
102
}
330
1078
100
AcDbScale
 70
     0
300
1/4" = 1'-0"
140
0.25
141
12.0
290
     0
  0
SCALE
  5
1092
102
{ACAD_REACTORS
330
1078
102
}
330
1078
100
AcDbScale
 70
     0
300
3/8" = 1'-0"
140
0.375
141
12.0
290
     0
  0
SCALE
  5
1093
102
{ACAD_REACTORS
330
1078
102
}
330
1078
100
AcDbScale
 70
     0
300
1/2" = 1'-0"
140
0.5
141
12.0
290
     0
  0
SCALE
  5
1094
102
{ACAD_REACTORS
330
1078
102
}
330
1078
100
AcDbScale
 70
     0
300
3/4" = 1'-0"
140
0.75
141
12.0
290
     0
  0
SCALE
  5
1095
102
{ACAD_REACTORS
330
1078
102
}
330
1078
100
AcDbScale
 70
     0
300
1" = 1'-0"
140
1.0
141
12.0
290
     0
  0
SCALE
  5
1096
102
{ACAD_REACTORS
330
1078
102
}
330
1078
100
AcDbScale
 70
     0
300
1-1/2" = 1'-0"
140
1.5
141
12.0
290
     0
  0
SCALE
  5
1097
102
{ACAD_REACTORS
330
1078
102
}
330
1078
100
AcDbScale
 70
     0
300
3" = 1'-0"
140
3.0
141
12.0
290
     0
  0
SCALE
  5
1098
102
{ACAD_REACTORS
330
1078
102
}
330
1078
100
AcDbScale
 70
     0
300
6" = 1'-0"
140
6.0
141
12.0
290
     0
  0
SCALE
  5
1099
102
{ACAD_REACTORS
330
1078
102
}
330
1078
100
AcDbScale
 70
     0
300
1'-0" = 1'-0"
140
12.0
141
12.0
290
     0
  0
TABLESTYLE
  5
1077
102
{ACAD_XDICTIONARY
360
1156
102
}
102
{ACAD_REACTORS
330
1076
102
}
330
1076
100
AcDbTableStyle
  3
Standard
 70
     0
 71
     0
 40
0.06
 41
0.06
280
     0
281
     0
  7
STANDARD
140
0.18
170
     2
 62
     0
 63
     7
283
     0
274
    -2
284
     1
 64
     0
275
    -2
285
     1
 65
     0
276
    -2
286
     1
 66
     0
277
    -2
287
     1
 67
     0
278
    -2
288
     1
 68
     0
279
    -2
289
     1
 69
     0
  7
STANDARD
140
0.25
170
     5
 62
     0
 63
     7
283
     0
274
    -2
284
     1
 64
     0
275
    -2
285
     1
 65
     0
276
    -2
286
     1
 66
     0
277
    -2
287
     1
 67
     0
278
    -2
288
     1
 68
     0
279
    -2
289
     1
 69
     0
  7
STANDARD
140
0.18
170
     5
 62
     0
 63
     7
283
     0
274
    -2
284
     1
 64
     0
275
    -2
285
     1
 65
     0
276
    -2
286
     1
 66
     0
277
    -2
287
     1
 67
     0
278
    -2
288
     1
 68
     0
279
    -2
289
     1
 69
     0
  0
VISUALSTYLE
  5
106A
102
{ACAD_REACTORS
330
1064
102
}
330
1064
100
AcDbVisualStyle
  2
2dWireframe
 70
     4
 71
     0
 72
     2
 73
     0
 90
        0
 40
-0.6
 41
-30.0
 62
     5
 63
     7
 74
     1
 91
        4
 64
     7
 65
   257
 75
     1
175
     1
 42
1.0
 92
        0
 66
   257
 43
1.0
 76
     1
 77
     6
 78
     2
 67
     7
 79
     5
170
     0
171
     0
290
     0
174
     0
 93
        1
 44
0.0
173
     0
291
     0
 45
0.0
1001
ACAD
1000
AcDbSavedByObjectVersion
1070
     0
  0
VISUALSTYLE
  5
106C
102
{ACAD_REACTORS
330
1064
102
}
330
1064
100
AcDbVisualStyle
  2
3D Hidden
 70
     6
 71
     1
 72
     2
 73
     2
 90
        0
 40
-0.6
 41
-30.0
 62
     5
 63
     7
 74
     2
 91
        2
 64
     7
 65
   257
 75
     2
175
     1
 42
40.0
 92
        0
 66
   257
 43
1.0
 76
     1
 77
     6
 78
     2
 67
     7
 79
     3
170
     0
171
     0
290
     0
174
     0
 93
        1
 44
0.0
173
     0
291
     0
 45
0.0
1001
ACAD
1000
AcDbSavedByObjectVersion
1070
     0
  0
VISUALSTYLE
  5
106B
102
{ACAD_REACTORS
330
1064
102
}
330
1064
100
AcDbVisualStyle
  2
3dWireframe
 70
     5
 71
     0
 72
     2
 73
     0
 90
        0
 40
-0.6
 41
-30.0
 62
     5
 63
     7
 74
     1
 91
        4
 64
     7
 65
   257
 75
     1
175
     1
 42
1.0
 92
        0
 66
   257
 43
1.0
 76
     1
 77
     6
 78
     2
 67
     7
 79
     5
170
     0
171
     0
290
     0
174
     0
 93
        1
 44
0.0
173
     0
291
     0
 45
0.0
1001
ACAD
1000
AcDbSavedByObjectVersion
1070
     0
  0
VISUALSTYLE
  5
1069
102
{ACAD_REACTORS
330
1064
102
}
330
1064
100
AcDbVisualStyle
  2
Basic
 70
     7
 71
     1
 72
     0
 73
     1
 90
        0
 40
-0.6
 41
-30.0
 62
     5
 63
     7
 74
     0
 91
        4
 64
     7
 65
   257
 75
     1
175
     1
 42
1.0
 92
        8
 66
     7
 43
1.0
 76
     1
 77
     6
 78
     2
 67
     7
 79
     5
170
     0
171
     0
290
     0
174
     0
 93
        1
 44
0.0
173
     0
291
     1
 45
0.0
1001
ACAD
1000
AcDbSavedByObjectVersion
1070
     0
  0
VISUALSTYLE
  5
1070
102
{ACAD_REACTORS
330
1064
102
}
330
1064
100
AcDbVisualStyle
  2
Brighten
 70
    12
 71
     2
 72
     2
 73
     0
 90
        0
 40
-0.6
 41
-30.0
 62
     5
 63
     7
 74
     1
 91
        4
 64
     7
 65
   257
 75
     1
175
     1
 42
1.0
 92
        8
 66
     7
 43
1.0
 76
     1
 77
     6
 78
     2
 67
     7
 79
     5
170
     0
171
     0
290
     0
174
     0
 93
        1
 44
50.0
173
     0
291
     1
 45
0.0
1001
ACAD
1000
AcDbSavedByObjectVersion
1070
     0
  0
VISUALSTYLE
  5
1074
102
{ACAD_REACTORS
330
1064
102
}
330
1064
100
AcDbVisualStyle
  2
ColorChange
 70
    16
 71
     2
 72
     2
 73
     3
 90
        0
 40
-0.6
 41
-30.0
 62
     5
 63
     8
 74
     1
 91
        4
 64
     7
 65
   257
 75
     1
175
     1
 42
1.0
 92
        8
 66
     8
 43
1.0
 76
     1
 77
     6
 78
     2
 67
     7
 79
     5
170
     0
171
     0
290
     0
174
     0
 93
        1
 44
0.0
173
     0
291
     1
 45
0.0
1001
ACAD
1000
AcDbSavedByObjectVersion
1070
     0
  0
VISUALSTYLE
  5
106D
102
{ACAD_REACTORS
330
1064
102
}
330
1064
100
AcDbVisualStyle
  2
Conceptual
 70
     9
 71
     3
 72
     2
 73
     0
 90
        0
 40
-0.6
 41
-30.0
 62
     5
 63
     7
 74
     2
 91
        2
 64
     7
 65
   257
 75
     1
175
     1
 42
40.0
 92
        8
 66
     7
 43
1.0
 76
     1
 77
     6
 78
     2
 67
     7
 79
     3
170
     0
171
     0
290
     0
174
     0
 93
        1
 44
0.0
173
     0
291
     0
 45
0.0
1001
ACAD
1000
AcDbSavedByObjectVersion
1070
     0
  0
VISUALSTYLE
  5
106F
102
{ACAD_REACTORS
330
1064
102
}
330
1064
100
AcDbVisualStyle
  2
Dim
 70
    11
 71
     2
 72
     2
 73
     0
 90
        0
 40
-0.6
 41
-30.0
 62
     5
 63
     7
 74
     1
 91
        4
 64
     7
 65
   257
 75
     1
175
     1
 42
1.0
 92
        8
 66
     7
 43
1.0
 76
     1
 77
     6
 78
     2
 67
     7
 79
     5
170
     0
171
     0
290
     0
174
     0
 93
        1
 44
-50.0
173
     0
291
     1
 45
0.0
1001
ACAD
1000
AcDbSavedByObjectVersion
1070
     0
  0
VISUALSTYLE
  5
1073
102
{ACAD_REACTORS
330
1064
102
}
330
1064
100
AcDbVisualStyle
  2
Facepattern
 70
    15
 71
     2
 72
     2
 73
     0
 90
        0
 40
-0.6
 41
-30.0
 62
     5
 63
     7
 74
     1
 91
        4
 64
     7
 65
   257
 75
     1
175
     1
 42
1.0
 92
        8
 66
     7
 43
1.0
 76
     1
 77
     6
 78
     2
 67
     7
 79
     5
170
     0
171
     0
290
     0
174
     0
 93
        1
 44
0.0
173
     0
291
     1
 45
0.0
1001
ACAD
1000
AcDbSavedByObjectVersion
1070
     0
  0
VISUALSTYLE
  5
1065
102
{ACAD_REACTORS
330
1064
102
}
330
1064
100
AcDbVisualStyle
  2
Flat
 70
     0
 71
     2
 72
     1
 73
     1
 90
        2
 40
-0.6
 41
30.0
 62
     5
 63
     7
 74
     0
 91
        4
 64
     7
 65
   257
 75
     1
175
     1
 42
1.0
 92
        8
 66
     7
 43
1.0
 76
     1
 77
     6
 78
     2
 67
     7
 79
     5
170
     0
171
     0
290
     0
174
     0
 93
       13
 44
0.0
173
     0
291
     1
 45
0.0
1001
ACAD
1000
AcDbSavedByObjectVersion
1070
     0
  0
VISUALSTYLE
  5
1066
102
{ACAD_REACTORS
330
1064
102
}
330
1064
100
AcDbVisualStyle
  2
FlatWithEdges
 70
     1
 71
     2
 72
     1
 73
     1
 90
        2
 40
-0.6
 41
30.0
 62
     5
 63
     7
 74
     1
 91
        4
 64
     7
 65
   257
 75
     1
175
     1
 42
1.0
 92
        0
 66
   257
 43
1.0
 76
     1
 77
     6
 78
     2
 67
     7
 79
     5
170
     0
171
     0
290
     0
174
     0
 93
       13
 44
0.0
173
     0
291
     1
 45
0.0
1001
ACAD
1000
AcDbSavedByObjectVersion
1070
     0
  0
VISUALSTYLE
  5
1067
102
{ACAD_REACTORS
330
1064
102
}
330
1064
100
AcDbVisualStyle
  2
Gouraud
 70
     2
 71
     2
 72
     2
 73
     1
 90
        2
 40
-0.6
 41
30.0
 62
     5
 63
     7
 74
     0
 91
        4
 64
     7
 65
   257
 75
     1
175
     1
 42
1.0
 92
        0
 66
     7
 43
1.0
 76
     1
 77
     6
 78
     2
 67
     7
 79
     5
170
     0
171
     0
290
     0
174
     0
 93
       13
 44
0.0
173
     0
291
     1
 45
0.0
1001
ACAD
1000
AcDbSavedByObjectVersion
1070
     0
  0
VISUALSTYLE
  5
1068
102
{ACAD_REACTORS
330
1064
102
}
330
1064
100
AcDbVisualStyle
  2
GouraudWithEdges
 70
     3
 71
     2
 72
     2
 73
     1
 90
        2
 40
-0.6
 41
30.0
 62
     5
 63
     7
 74
     1
 91
        4
 64
     7
 65
   257
 75
     1
175
     1
 42
1.0
 92
        0
 66
   257
 43
1.0
 76
     1
 77
     6
 78
     2
 67
     7
 79
     5
170
     0
171
     0
290
     0
174
     0
 93
       13
 44
0.0
173
     0
291
     1
 45
0.0
1001
ACAD
1000
AcDbSavedByObjectVersion
1070
     0
  0
VISUALSTYLE
  5
1072
102
{ACAD_REACTORS
330
1064
102
}
330
1064
100
AcDbVisualStyle
  2
Linepattern
 70
    14
 71
     2
 72
     2
 73
     0
 90
        0
 40
-0.6
 41
-30.0
 62
     5
 63
     7
 74
     1
 91
        4
 64
     7
 65
   257
 75
     7
175
     7
 42
1.0
 92
        8
 66
     7
 43
1.0
 76
     1
 77
     6
 78
     2
 67
     7
 79
     5
170
     0
171
     0
290
     0
174
     0
 93
        1
 44
0.0
173
     0
291
     1
 45
0.0
1001
ACAD
1000
AcDbSavedByObjectVersion
1070
     0
  0
VISUALSTYLE
  5
106E
102
{ACAD_REACTORS
330
1064
102
}
330
1064
100
AcDbVisualStyle
  2
Realistic
 70
     8
 71
     2
 72
     2
 73
     0
 90
        0
 40
-0.6
 41
-30.0
 62
     5
 63
     7
 74
     1
 91
        0
 64
     7
 65
   257
 75
     1
175
     1
 42
1.0
 92
        8
 66
     8
 43
1.0
 76
     1
 77
     6
 78
     2
 67
     7
 79
     5
170
     0
171
     0
290
     0
174
     0
 93
       13
 44
0.0
173
     0
291
     0
 45
0.0
1001
ACAD
1000
AcDbSavedByObjectVersion
1070
     0
  0
VISUALSTYLE
  5
1071
102
{ACAD_REACTORS
330
1064
102
}
330
1064
100
AcDbVisualStyle
  2
Thicken
 70
    13
 71
     2
 72
     2
 73
     0
 90
        0
 40
-0.6
 41
-30.0
 62
     5
 63
     7
 74
     1
 91
        4
 64
     7
 65
   257
 75
     1
175
     1
 42
1.0
 92
       12
 66
     7
 43
1.0
 76
     1
 77
     6
 78
     2
 67
     7
 79
     5
170
     0
171
     0
290
     0
174
     0
 93
        1
 44
0.0
173
     0
291
     1
 45
0.0
1001
ACAD
1000
AcDbSavedByObjectVersion
1070
     0
  0
DICTIONARYVAR
  5
1152
102
{ACAD_REACTORS
330
114F
102
}
330
114F
100
DictionaryVariables
280
     0
  1
1:1
  0
DICTIONARYVAR
  5
1151
102
{ACAD_REACTORS
330
114F
102
}
330
114F
100
DictionaryVariables
280
     0
  1
STANDARD
  0
DICTIONARYVAR
  5
1150
102
{ACAD_REACTORS
330
114F
102
}
330
114F
100
DictionaryVariables
280
     0
  1
STANDARD
  0
DICTIONARYVAR
  5
1155
102
{ACAD_REACTORS
330
114F
102
}
330
114F
100
DictionaryVariables
280
     0
  1
1
  0
DICTIONARYVAR
  5
1154
102
{ACAD_REACTORS
330
114F
102
}
330
114F
100
DictionaryVariables
280
     0
  1
0
  0
DICTIONARYVAR
  5
1153
102
{ACAD_REACTORS
330
114F
102
}
330
114F
100
DictionaryVariables
280
     0
  1
127
  0
DICTIONARY
  5
110A
102
{ACAD_REACTORS
330
10FF
102
}
330
10FF
100
AcDbDictionary
281
     1
  0
DICTIONARY
  5
1160
330
10A0
100
AcDbDictionary
280
     1
281
     1
  3
ACAD_XREC_ROUNDTRIP
360
1161
  0
DICTIONARY
  5
115E
330
109F
100
AcDbDictionary
280
     1
281
     1
  3
ACAD_XREC_ROUNDTRIP
360
115F
  0
DICTIONARY
  5
1055
330
1054
100
AcDbDictionary
280
     1
281
     1
  3
ACAD_XREC_ROUNDTRIP
360
115B
  3
BUMPTILE
360
1057
  3
DIFFUSETILE
360
1056
  3
OPACITYTILE
360
105A
  3
REFLECTIONTILE
360
1059
  3
REFRACTIONTILE
360
105B
  3
SPECULARTILE
360
1058
  0
DICTIONARY
  5
104D
330
104C
100
AcDbDictionary
280
     1
281
     1
  3
ACAD_XREC_ROUNDTRIP
360
115A
  3
BUMPTILE
360
104F
  3
DIFFUSETILE
360
104E
  3
OPACITYTILE
360
1052
  3
REFLECTIONTILE
360
1051
  3
REFRACTIONTILE
360
1053
  3
SPECULARTILE
360
1050
  0
DICTIONARY
  5
105D
330
105C
100
AcDbDictionary
280
     1
281
     1
  3
ACAD_XREC_ROUNDTRIP
360
115C
  3
BUMPTILE
360
105F
  3
DIFFUSETILE
360
105E
  3
OPACITYTILE
360
1062
  3
REFLECTIONTILE
360
1061
  3
REFRACTIONTILE
360
1063
  3
SPECULARTILE
360
1060
  0
DICTIONARY
  5
1156
330
1077
100
AcDbDictionary
280
     1
281
     1
  3
ACAD_ROUNDTRIP_2008_TABLESTYLE_CELLSTYLEMAP
360
1157
  3
ACAD_XREC_ROUNDTRIP
360
115D
  0
XRECORD
  5
1161
102
{ACAD_REACTORS
330
1160
102
}
330
1160
100
AcDbXrecord
280
     1
102
SHADEPLOT
 70
     0
102
SHADEPLOTRESLEVEL
 70
     2
102
SHADEPLOTCUSTOMDPI
 70
   300
  0
XRECORD
  5
115F
102
{ACAD_REACTORS
330
115E
102
}
330
115E
100
AcDbXrecord
280
     1
102
SHADEPLOT
 70
     0
102
SHADEPLOTRESLEVEL
 70
     2
102
SHADEPLOTCUSTOMDPI
 70
   300
  0
XRECORD
  5
115B
102
{ACAD_REACTORS
330
1055
102
}
330
1055
100
AcDbXrecord
280
     1
102
MATERIAL
148
0.0
149
0.0
149
0.0
 93
        0
 94
      127
282
     0
 72
     0
 77
     0
171
     0
175
     0
179
     0
273
     0
  0
XRECORD
  5
1057
102
{ACAD_REACTORS
330
1055
102
}
330
1055
100
AcDbXrecord
280
     1
270
     1
271
     1
  0
XRECORD
  5
1056
102
{ACAD_REACTORS
330
1055
102
}
330
1055
100
AcDbXrecord
280
     1
270
     1
271
     1
  0
XRECORD
  5
105A
102
{ACAD_REACTORS
330
1055
102
}
330
1055
100
AcDbXrecord
280
     1
270
     1
271
     1
  0
XRECORD
  5
1059
102
{ACAD_REACTORS
330
1055
102
}
330
1055
100
AcDbXrecord
280
     1
270
     1
271
     1
  0
XRECORD
  5
105B
102
{ACAD_REACTORS
330
1055
102
}
330
1055
100
AcDbXrecord
280
     1
270
     1
271
     1
  0
XRECORD
  5
1058
102
{ACAD_REACTORS
330
1055
102
}
330
1055
100
AcDbXrecord
280
     1
270
     1
271
     1
  0
XRECORD
  5
115A
102
{ACAD_REACTORS
330
104D
102
}
330
104D
100
AcDbXrecord
280
     1
102
MATERIAL
148
0.0
149
0.0
149
0.0
 93
        0
 94
      127
282
     0
 72
     0
 77
     0
171
     0
175
     0
179
     0
273
     0
  0
XRECORD
  5
104F
102
{ACAD_REACTORS
330
104D
102
}
330
104D
100
AcDbXrecord
280
     1
270
     1
271
     1
  0
XRECORD
  5
104E
102
{ACAD_REACTORS
330
104D
102
}
330
104D
100
AcDbXrecord
280
     1
270
     1
271
     1
  0
XRECORD
  5
1052
102
{ACAD_REACTORS
330
104D
102
}
330
104D
100
AcDbXrecord
280
     1
270
     1
271
     1
  0
XRECORD
  5
1051
102
{ACAD_REACTORS
330
104D
102
}
330
104D
100
AcDbXrecord
280
     1
270
     1
271
     1
  0
XRECORD
  5
1053
102
{ACAD_REACTORS
330
104D
102
}
330
104D
100
AcDbXrecord
280
     1
270
     1
271
     1
  0
XRECORD
  5
1050
102
{ACAD_REACTORS
330
104D
102
}
330
104D
100
AcDbXrecord
280
     1
270
     1
271
     1
  0
XRECORD
  5
115C
102
{ACAD_REACTORS
330
105D
102
}
330
105D
100
AcDbXrecord
280
     1
102
MATERIAL
148
0.0
149
0.0
149
0.0
 93
        0
 94
      127
282
     0
 72
     0
 77
     0
171
     0
175
     0
179
     0
273
     0
  0
XRECORD
  5
105F
102
{ACAD_REACTORS
330
105D
102
}
330
105D
100
AcDbXrecord
280
     1
270
     1
271
     1
  0
XRECORD
  5
105E
102
{ACAD_REACTORS
330
105D
102
}
330
105D
100
AcDbXrecord
280
     1
270
     1
271
     1
  0
XRECORD
  5
1062
102
{ACAD_REACTORS
330
105D
102
}
330
105D
100
AcDbXrecord
280
     1
270
     1
271
     1
  0
XRECORD
  5
1061
102
{ACAD_REACTORS
330
105D
102
}
330
105D
100
AcDbXrecord
280
     1
270
     1
271
     1
  0
XRECORD
  5
1063
102
{ACAD_REACTORS
330
105D
102
}
330
105D
100
AcDbXrecord
280
     1
270
     1
271
     1
  0
XRECORD
  5
1060
102
{ACAD_REACTORS
330
105D
102
}
330
105D
100
AcDbXrecord
280
     1
270
     1
271
     1
  0
CELLSTYLEMAP
  5
1157
102
{ACAD_REACTORS
330
1156
102
}
330
1156
100
AcDbCellStyleMap
 90
        3
300
CELLSTYLE
  1
TABLEFORMAT_BEGIN
 90
        5
170
     1
 91
        0
 92
    32768
 62
   257
 93
        1
300
CONTENTFORMAT
  1
CONTENTFORMAT_BEGIN
 90
        0
 91
        0
 92
      512
 93
        0
300

 40
0.0
140
1.0
 94
        5
 62
     0
340
10
144
0.25
309
CONTENTFORMAT_END
171
     0
 94
        0
309
TABLEFORMAT_END
  1
CELLSTYLE_BEGIN
 90
        1
 91
        1
300
_TITLE
309
CELLSTYLE_END
300
CELLSTYLE
  1
TABLEFORMAT_BEGIN
 90
        5
170
     1
 91
        0
 92
        0
 62
   257
 93
        1
300
CONTENTFORMAT
  1
CONTENTFORMAT_BEGIN
 90
        0
 91
        0
 92
      512
 93
        0
300

 40
0.0
140
1.0
 94
        5
 62
     0
340
10
144
0.18
309
CONTENTFORMAT_END
171
     0
 94
        0
309
TABLEFORMAT_END
  1
CELLSTYLE_BEGIN
 90
        2
 91
        1
300
_HEADER
309
CELLSTYLE_END
300
CELLSTYLE
  1
TABLEFORMAT_BEGIN
 90
        5
170
     1
 91
        0
 92
        0
 62
   257
 93
        1
300
CONTENTFORMAT
  1
CONTENTFORMAT_BEGIN
 90
        0
 91
        0
 92
      512
 93
        0
300

 40
0.0
140
1.0
 94
        2
 62
     0
340
10
144
0.18
309
CONTENTFORMAT_END
171
     0
 94
        0
309
TABLEFORMAT_END
  1
CELLSTYLE_BEGIN
 90
        3
 91
        2
300
_DATA
309
CELLSTYLE_END
  0
XRECORD
  5
115D
102
{ACAD_REACTORS
330
1156
102
}
330
1156
100
AcDbXrecord
280
     1
102
ACAD_ROUNDTRIP_PRE2007_TABLESTYLE
 90
      512
 91
        0
  1

 92
      512
 93
        0
  2

 94
      512
 95
        0
  3

  0
ENDSEC
  0
EOF
