ISO-10303-21;
HEADER;
/****************************************************************
 * Generated by software with PDElib inside                    *
 * PDElib Version v51a, created Wed 07/06/2011                  *
 * ITI Transcendata (http://www.transcendata.com/)              *
 ****************************************************************/
FILE_DESCRIPTION((''),'2;1');
FILE_NAME('M:\\Module\\Internet-Daten\\MSL-F + MSF\\STEP\\MSF-20M.stp','2012-10-05T14:15:30',('hartung_david'),(''),'Autodesk Inventor 2012','Autodesk Inventor 2012','');
FILE_SCHEMA(('AUTOMOTIVE_DESIGN { 1 0 10303 214 1 1 1 1 }'));
ENDSEC;
DATA;
#5=APPLICATION_CONTEXT('automotive design');
#6=APPLICATION_PROTOCOL_DEFINITION('International Standard','automotive_design',2001,#5);
#7=PRODUCT_CONTEXT('',#5,'mechanical');
#8=PRODUCT('MSF-20M','MSF-20M',$,(#7));
#9=PRODUCT_RELATED_PRODUCT_CATEGORY('part',$,(#8));
#10=PRODUCT_DEFINITION_FORMATION('',$,#8);
#11=PRODUCT_DEFINITION_CONTEXT('part definition',#5,'design');
#12=PRODUCT_DEFINITION('',$,#10,#11);
#18=(NAMED_UNIT(*)PLANE_ANGLE_UNIT()SI_UNIT($,.RADIAN.));
#19=DIMENSIONAL_EXPONENTS(0.0,0.0,0.0,0.0,0.0,0.0,0.0);
#20=PLANE_ANGLE_MEASURE_WITH_UNIT(PLANE_ANGLE_MEASURE(0.0174532925),#18);
#24=(CONVERSION_BASED_UNIT('DEGREE',#20)NAMED_UNIT(#19)PLANE_ANGLE_UNIT());
#28=(NAMED_UNIT(*)SI_UNIT($,.STERADIAN.)SOLID_ANGLE_UNIT());
#32=(LENGTH_UNIT()NAMED_UNIT(*)SI_UNIT(.MILLI.,.METRE.));
#34=UNCERTAINTY_MEASURE_WITH_UNIT(LENGTH_MEASURE(0.01),#32,'DISTANCE_ACCURACY_VALUE','');
#36=(GEOMETRIC_REPRESENTATION_CONTEXT(3)GLOBAL_UNCERTAINTY_ASSIGNED_CONTEXT((#34))GLOBAL_UNIT_ASSIGNED_CONTEXT((#24,#28,#32))REPRESENTATION_CONTEXT('None','None'));
#37=AXIS2_PLACEMENT_3D('',#38,#39,#40);
#38=CARTESIAN_POINT('',(0.0,0.0,0.0));
#39=DIRECTION('',(0.0,0.0,1.0));
#40=DIRECTION('',(1.0,0.0,0.0));
#41=SHAPE_REPRESENTATION('',(#37),#36);
#42=PRODUCT_DEFINITION_SHAPE('','',#12);
#43=SHAPE_DEFINITION_REPRESENTATION(#42,#41);
#49=(NAMED_UNIT(*)PLANE_ANGLE_UNIT()SI_UNIT($,.RADIAN.));
#50=DIMENSIONAL_EXPONENTS(0.0,0.0,0.0,0.0,0.0,0.0,0.0);
#51=PLANE_ANGLE_MEASURE_WITH_UNIT(PLANE_ANGLE_MEASURE(0.0174532925),#49);
#55=(CONVERSION_BASED_UNIT('DEGREE',#51)NAMED_UNIT(#50)PLANE_ANGLE_UNIT());
#59=(NAMED_UNIT(*)SI_UNIT($,.STERADIAN.)SOLID_ANGLE_UNIT());
#63=(LENGTH_UNIT()NAMED_UNIT(*)SI_UNIT(.MILLI.,.METRE.));
#65=UNCERTAINTY_MEASURE_WITH_UNIT(LENGTH_MEASURE(0.000001),#63,'DISTANCE_ACCURACY_VALUE','');
#67=(GEOMETRIC_REPRESENTATION_CONTEXT(3)GLOBAL_UNCERTAINTY_ASSIGNED_CONTEXT((#65))GLOBAL_UNIT_ASSIGNED_CONTEXT((#55,#59,#63))REPRESENTATION_CONTEXT('','3D'));
#68=CARTESIAN_POINT('',(0.0,112.4921875,0.0));
#69=DIRECTION('',(0.0,-1.0,0.0));
#70=DIRECTION('',(1.0,0.0,0.0));
#71=AXIS2_PLACEMENT_3D('',#68,#69,#70);
#72=CYLINDRICAL_SURFACE('',#71,19.0);
#73=CARTESIAN_POINT('',(-19.0,115.5,2.326752E-015));
#74=VERTEX_POINT('',#73);
#75=CARTESIAN_POINT('',(0.0,115.5,0.0));
#76=DIRECTION('',(0.0,1.0,0.0));
#77=DIRECTION('',(1.0,0.0,0.0));
#78=AXIS2_PLACEMENT_3D('',#75,#76,#77);
#79=CIRCLE('',#78,19.0);
#80=EDGE_CURVE('',#74,#74,#79,.T.);
#81=ORIENTED_EDGE('',*,*,#80,.F.);
#82=EDGE_LOOP('',(#81));
#83=FACE_OUTER_BOUND('',#82,.T.);
#84=CARTESIAN_POINT('',(-19.0,109.484375,2.326752E-015));
#85=VERTEX_POINT('',#84);
#86=CARTESIAN_POINT('',(0.0,109.484375,0.0));
#87=DIRECTION('',(0.0,1.0,0.0));
#88=DIRECTION('',(1.0,0.0,0.0));
#89=AXIS2_PLACEMENT_3D('',#86,#87,#88);
#90=CIRCLE('',#89,19.0);
#91=EDGE_CURVE('',#85,#85,#90,.T.);
#92=ORIENTED_EDGE('',*,*,#91,.T.);
#93=EDGE_LOOP('',(#92));
#94=FACE_BOUND('',#93,.T.);
#95=ADVANCED_FACE('',(#83,#94),#72,.T.);
#96=CARTESIAN_POINT('',(0.0,99.558593750000014,0.0));
#97=DIRECTION('',(0.0,-1.0,0.0));
#98=DIRECTION('',(1.0,0.0,0.0));
#99=AXIS2_PLACEMENT_3D('',#96,#97,#98);
#100=CYLINDRICAL_SURFACE('',#99,18.366666666666703);
#101=CARTESIAN_POINT('',(-18.366666666666703,109.484375,2.249194E-015));
#102=VERTEX_POINT('',#101);
#103=CARTESIAN_POINT('',(0.0,109.484375,0.0));
#104=DIRECTION('',(0.0,1.0,0.0));
#105=DIRECTION('',(1.0,0.0,0.0));
#106=AXIS2_PLACEMENT_3D('',#103,#104,#105);
#107=CIRCLE('',#106,18.366666666666703);
#108=EDGE_CURVE('',#102,#102,#107,.T.);
#109=ORIENTED_EDGE('',*,*,#108,.F.);
#110=EDGE_LOOP('',(#109));
#111=FACE_OUTER_BOUND('',#110,.T.);
#112=CARTESIAN_POINT('',(-18.366666666666703,89.6328125,2.249194E-015));
#113=VERTEX_POINT('',#112);
#114=CARTESIAN_POINT('',(0.0,89.6328125,0.0));
#115=DIRECTION('',(0.0,1.0,0.0));
#116=DIRECTION('',(1.0,0.0,0.0));
#117=AXIS2_PLACEMENT_3D('',#114,#115,#116);
#118=CIRCLE('',#117,18.366666666666703);
#119=EDGE_CURVE('',#113,#113,#118,.T.);
#120=ORIENTED_EDGE('',*,*,#119,.T.);
#121=EDGE_LOOP('',(#120));
#122=FACE_BOUND('',#121,.T.);
#123=ADVANCED_FACE('',(#111,#122),#100,.T.);
#124=CARTESIAN_POINT('',(0.0,94.125,0.0));
#125=DIRECTION('',(0.0,-1.0,0.0));
#126=DIRECTION('',(1.0,0.0,0.0));
#127=AXIS2_PLACEMENT_3D('',#124,#125,#126);
#128=CYLINDRICAL_SURFACE('',#127,4.283);
#129=CARTESIAN_POINT('',(-4.283,72.75,5.244989E-016));
#130=VERTEX_POINT('',#129);
#131=CARTESIAN_POINT('',(0.0,72.75,0.0));
#132=DIRECTION('',(0.0,1.0,0.0));
#133=DIRECTION('',(1.0,0.0,0.0));
#134=AXIS2_PLACEMENT_3D('',#131,#132,#133);
#135=CIRCLE('',#134,4.283);
#136=EDGE_CURVE('',#130,#130,#135,.T.);
#137=ORIENTED_EDGE('',*,*,#136,.F.);
#138=EDGE_LOOP('',(#137));
#139=FACE_OUTER_BOUND('',#138,.T.);
#140=CARTESIAN_POINT('',(-4.283,115.5,5.244989E-016));
#141=VERTEX_POINT('',#140);
#142=CARTESIAN_POINT('',(0.0,115.5,0.0));
#143=DIRECTION('',(0.0,-1.0,0.0));
#144=DIRECTION('',(1.0,0.0,0.0));
#145=AXIS2_PLACEMENT_3D('',#142,#143,#144);
#146=CIRCLE('',#145,4.283);
#147=EDGE_CURVE('',#141,#141,#146,.T.);
#148=ORIENTED_EDGE('',*,*,#147,.F.);
#149=EDGE_LOOP('',(#148));
#150=FACE_BOUND('',#149,.T.);
#151=ADVANCED_FACE('',(#139,#150),#128,.F.);
#152=CARTESIAN_POINT('',(0.0,71.513604398530489,0.0));
#153=DIRECTION('',(0.0,1.0,0.0));
#154=DIRECTION('',(1.0,0.0,0.0));
#155=AXIS2_PLACEMENT_3D('',#152,#153,#154);
#156=CONICAL_SURFACE('',#155,2.1415,60.000000000001279);
#157=ORIENTED_EDGE('',*,*,#136,.T.);
#158=EDGE_LOOP('',(#157));
#159=FACE_OUTER_BOUND('',#158,.T.);
#160=ADVANCED_FACE('',(#159),#156,.F.);
#161=CARTESIAN_POINT('',(0.0,44.81640625,0.0));
#162=DIRECTION('',(0.0,-1.0,0.0));
#163=DIRECTION('',(1.0,0.0,0.0));
#164=AXIS2_PLACEMENT_3D('',#161,#162,#163);
#165=CYLINDRICAL_SURFACE('',#164,19.0);
#166=CARTESIAN_POINT('',(-19.0,89.6328125,2.326752E-015));
#167=VERTEX_POINT('',#166);
#168=CARTESIAN_POINT('',(0.0,89.6328125,0.0));
#169=DIRECTION('',(0.0,1.0,0.0));
#170=DIRECTION('',(1.0,0.0,0.0));
#171=AXIS2_PLACEMENT_3D('',#168,#169,#170);
#172=CIRCLE('',#171,19.0);
#173=EDGE_CURVE('',#167,#167,#172,.T.);
#174=ORIENTED_EDGE('',*,*,#173,.F.);
#175=EDGE_LOOP('',(#174));
#176=FACE_OUTER_BOUND('',#175,.T.);
#177=CARTESIAN_POINT('',(1.255222E-015,19.75,19.0));
#178=VERTEX_POINT('',#177);
#179=CARTESIAN_POINT('',(-2.510443E-015,40.25,19.0));
#180=VERTEX_POINT('',#179);
#181=CARTESIAN_POINT('',(9.714451E-016,19.749999999999996,19.0));
#182=CARTESIAN_POINT('',(-1.315894573393376,19.749999999999996,19.0));
#183=CARTESIAN_POINT('',(-2.701515048539045,20.018599580554355,18.85098295964432));
#184=CARTESIAN_POINT('',(-5.220008663672307,21.073744243259306,18.314181671726189));
#185=CARTESIAN_POINT('',(-6.354618153436742,21.858929139112515,17.931886496777434));
#186=CARTESIAN_POINT('',(-8.144545437587308,23.648856423263076,17.193236553389177));
#187=CARTESIAN_POINT('',(-8.927225970118389,24.782369127494182,16.783118450535778));
#188=CARTESIAN_POINT('',(-9.717018497126929,26.667408551798747,16.330084950779838));
#189=CARTESIAN_POINT('',(-9.918617089351976,27.326513792951253,16.2063475586877));
#190=CARTESIAN_POINT('',(-10.18516823864471,28.662524291768911,16.040168772318118));
#191=CARTESIAN_POINT('',(-10.250000000000002,29.339493352730788,15.998046755776157));
#192=CARTESIAN_POINT('',(-10.25,30.660506647269216,15.998046755776155));
#193=CARTESIAN_POINT('',(-10.18516823864471,31.337475708231082,16.040168772318122));
#194=CARTESIAN_POINT('',(-9.918617089351979,32.67348620704874,16.206347558687703));
#195=CARTESIAN_POINT('',(-9.717018497126931,33.332591448201249,16.330084950779838));
#196=CARTESIAN_POINT('',(-8.927225970118396,35.217630872505808,16.783118450535774));
#197=CARTESIAN_POINT('',(-8.144545437587308,36.351143576736916,17.193236553389177));
#198=CARTESIAN_POINT('',(-6.354618153436746,38.141070860887474,17.931886496777434));
#199=CARTESIAN_POINT('',(-5.220008663672314,38.926255756740687,18.314181671726189));
#200=CARTESIAN_POINT('',(-2.701515048539051,39.981400419445649,18.85098295964432));
#201=CARTESIAN_POINT('',(-1.315894573393381,40.25,19.0));
#202=CARTESIAN_POINT('',(-2.081668E-015,40.25,19.0));
#203=B_SPLINE_CURVE_WITH_KNOTS('',3,(#181,#182,#183,#184,#185,#186,#187,#188,#189,#190,#191,#192,#193,#194,#195,#196,#197,#198,#199,#200,#201,#202),.UNSPECIFIED.,.F.,.U.,(4,2,2,2,2,2,2,2,2,2,4),(1.582144720759087,1.9769130927771,2.371681464795113,2.767985453156644,2.96613744733741,3.164289441518175,3.36244143569894,3.560593429879705,3.956897418241236,4.351665790259249,4.746434162277263),.UNSPECIFIED.);
#204=EDGE_CURVE('',#178,#180,#203,.T.);
#205=ORIENTED_EDGE('',*,*,#204,.T.);
#206=CARTESIAN_POINT('',(-2.081668E-015,40.25,19.0));
#207=CARTESIAN_POINT('',(1.315894573393374,40.25,19.0));
#208=CARTESIAN_POINT('',(2.701515048539044,39.981400419445649,18.850982959644323));
#209=CARTESIAN_POINT('',(5.220008663672308,38.926255756740687,18.314181671726189));
#210=CARTESIAN_POINT('',(6.354618153436742,38.141070860887481,17.931886496777434));
#211=CARTESIAN_POINT('',(8.144545437587306,36.351143576736924,17.193236553389177));
#212=CARTESIAN_POINT('',(8.927225970118389,35.217630872505822,16.783118450535778));
#213=CARTESIAN_POINT('',(9.717018497126929,33.332591448201249,16.330084950779838));
#214=CARTESIAN_POINT('',(9.918617089351978,32.67348620704874,16.206347558687703));
#215=CARTESIAN_POINT('',(10.18516823864471,31.337475708231089,16.040168772318122));
#216=CARTESIAN_POINT('',(10.250000000000002,30.660506647269216,15.998046755776157));
#217=CARTESIAN_POINT('',(10.250000000000002,30.0,15.998046755776157));
#218=CARTESIAN_POINT('',(10.250000000000002,29.339493352730784,15.998046755776157));
#219=CARTESIAN_POINT('',(10.18516823864471,28.662524291768911,16.040168772318118));
#220=CARTESIAN_POINT('',(9.918617089351978,27.326513792951257,16.2063475586877));
#221=CARTESIAN_POINT('',(9.717018497126929,26.667408551798747,16.330084950779838));
#222=CARTESIAN_POINT('',(8.927225970118391,24.782369127494182,16.783118450535778));
#223=CARTESIAN_POINT('',(8.144545437587306,23.648856423263084,17.193236553389177));
#224=CARTESIAN_POINT('',(6.354618153436745,21.858929139112519,17.931886496777434));
#225=CARTESIAN_POINT('',(5.220008663672307,21.073744243259309,18.314181671726189));
#226=CARTESIAN_POINT('',(2.701515048539044,20.018599580554355,18.85098295964432));
#227=CARTESIAN_POINT('',(1.315894573393378,19.749999999999996,19.0));
#228=CARTESIAN_POINT('',(-2.081668E-015,19.749999999999996,19.0));
#229=B_SPLINE_CURVE_WITH_KNOTS('',3,(#206,#207,#208,#209,#210,#211,#212,#213,#214,#215,#216,#217,#218,#219,#220,#221,#222,#223,#224,#225,#226,#227,#228),.UNSPECIFIED.,.F.,.U.,(4,2,2,2,2,3,2,2,2,2,4),(4.746434162277263,5.141202534295275,5.535970906313288,5.932274894674819,6.130426888855585,6.32857888303635,6.526730877217116,6.724882871397881,7.121186859759411,7.515955231777424,7.910723603795438),.UNSPECIFIED.);
#230=EDGE_CURVE('',#180,#178,#229,.T.);
#231=ORIENTED_EDGE('',*,*,#230,.T.);
#232=EDGE_LOOP('',(#205,#231));
#233=FACE_BOUND('',#232,.T.);
#234=CARTESIAN_POINT('',(-19.0,0.0,2.326752E-015));
#235=VERTEX_POINT('',#234);
#236=CARTESIAN_POINT('',(0.0,0.0,0.0));
#237=DIRECTION('',(0.0,1.0,0.0));
#238=DIRECTION('',(1.0,0.0,0.0));
#239=AXIS2_PLACEMENT_3D('',#236,#237,#238);
#240=CIRCLE('',#239,19.0);
#241=EDGE_CURVE('',#235,#235,#240,.T.);
#242=ORIENTED_EDGE('',*,*,#241,.T.);
#243=EDGE_LOOP('',(#242));
#244=FACE_BOUND('',#243,.T.);
#245=CARTESIAN_POINT('',(-2.510443E-015,40.25,-19.0));
#246=VERTEX_POINT('',#245);
#247=CARTESIAN_POINT('',(1.255222E-015,19.75,-19.0));
#248=VERTEX_POINT('',#247);
#249=CARTESIAN_POINT('',(4.163336E-016,40.25,-19.0));
#250=CARTESIAN_POINT('',(-1.315894573393376,40.25,-19.0));
#251=CARTESIAN_POINT('',(-2.701515048539045,39.981400419445649,-18.850982959644323));
#252=CARTESIAN_POINT('',(-5.22000866367231,38.926255756740701,-18.314181671726189));
#253=CARTESIAN_POINT('',(-6.354618153436742,38.141070860887481,-17.931886496777434));
#254=CARTESIAN_POINT('',(-8.144545437587304,36.351143576736924,-17.193236553389177));
#255=CARTESIAN_POINT('',(-8.927225970118389,35.217630872505822,-16.783118450535778));
#256=CARTESIAN_POINT('',(-9.717018497126928,33.332591448201256,-16.330084950779838));
#257=CARTESIAN_POINT('',(-9.918617089351976,32.673486207048747,-16.206347558687703));
#258=CARTESIAN_POINT('',(-10.185168238644708,31.337475708231093,-16.040168772318122));
#259=CARTESIAN_POINT('',(-10.250000000000002,30.660506647269223,-15.998046755776157));
#260=CARTESIAN_POINT('',(-10.250000000000002,29.339493352730777,-15.998046755776157));
#261=CARTESIAN_POINT('',(-10.185168238644708,28.662524291768907,-16.040168772318118));
#262=CARTESIAN_POINT('',(-9.918617089351978,27.326513792951257,-16.2063475586877));
#263=CARTESIAN_POINT('',(-9.717018497126929,26.667408551798747,-16.330084950779838));
#264=CARTESIAN_POINT('',(-8.927225970118391,24.782369127494182,-16.783118450535778));
#265=CARTESIAN_POINT('',(-8.144545437587306,23.648856423263084,-17.193236553389177));
#266=CARTESIAN_POINT('',(-6.354618153436745,21.858929139112519,-17.931886496777434));
#267=CARTESIAN_POINT('',(-5.220008663672311,21.073744243259309,-18.314181671726189));
#268=CARTESIAN_POINT('',(-2.701515048539048,20.018599580554355,-18.85098295964432));
#269=CARTESIAN_POINT('',(-1.315894573393378,19.749999999999996,-19.0));
#270=CARTESIAN_POINT('',(-6.938894E-016,19.749999999999996,-19.000000000000004));
#271=B_SPLINE_CURVE_WITH_KNOTS('',3,(#249,#250,#251,#252,#253,#254,#255,#256,#257,#258,#259,#260,#261,#262,#263,#264,#265,#266,#267,#268,#269,#270),.UNSPECIFIED.,.F.,.U.,(4,2,2,2,2,2,2,2,2,2,4),(-4.746434162277263,-4.35166579025925,-3.956897418241236,-3.560593429879706,-3.362441435698941,-3.164289441518175,-2.96613744733741,-2.767985453156645,-2.371681464795114,-1.976913092777101,-1.582144720759088),.UNSPECIFIED.);
#272=EDGE_CURVE('',#246,#248,#271,.T.);
#273=ORIENTED_EDGE('',*,*,#272,.T.);
#274=CARTESIAN_POINT('',(-6.938894E-016,19.749999999999996,-19.000000000000004));
#275=CARTESIAN_POINT('',(1.315894573393377,19.749999999999996,-19.000000000000004));
#276=CARTESIAN_POINT('',(2.701515048539045,20.018599580554355,-18.85098295964432));
#277=CARTESIAN_POINT('',(5.220008663672308,21.073744243259309,-18.314181671726189));
#278=CARTESIAN_POINT('',(6.354618153436742,21.858929139112515,-17.931886496777434));
#279=CARTESIAN_POINT('',(8.144545437587306,23.648856423263076,-17.193236553389177));
#280=CARTESIAN_POINT('',(8.927225970118389,24.782369127494182,-16.783118450535778));
#281=CARTESIAN_POINT('',(9.717018497126929,26.667408551798747,-16.330084950779838));
#282=CARTESIAN_POINT('',(9.918617089351978,27.326513792951257,-16.206347558687703));
#283=CARTESIAN_POINT('',(10.18516823864471,28.662524291768911,-16.040168772318122));
#284=CARTESIAN_POINT('',(10.250000000000002,29.339493352730784,-15.998046755776157));
#285=CARTESIAN_POINT('',(10.250000000000002,30.0,-15.998046755776157));
#286=CARTESIAN_POINT('',(10.250000000000002,30.660506647269216,-15.998046755776157));
#287=CARTESIAN_POINT('',(10.18516823864471,31.337475708231089,-16.040168772318122));
#288=CARTESIAN_POINT('',(9.918617089351978,32.67348620704874,-16.206347558687703));
#289=CARTESIAN_POINT('',(9.717018497126929,33.332591448201249,-16.330084950779838));
#290=CARTESIAN_POINT('',(8.927225970118389,35.217630872505822,-16.783118450535778));
#291=CARTESIAN_POINT('',(8.144545437587306,36.351143576736924,-17.193236553389177));
#292=CARTESIAN_POINT('',(6.354618153436742,38.141070860887481,-17.931886496777434));
#293=CARTESIAN_POINT('',(5.220008663672308,38.926255756740687,-18.314181671726189));
#294=CARTESIAN_POINT('',(2.701515048539046,39.981400419445649,-18.85098295964432));
#295=CARTESIAN_POINT('',(1.315894573393377,40.25,-19.0));
#296=CARTESIAN_POINT('',(4.163336E-016,40.25,-19.0));
#297=B_SPLINE_CURVE_WITH_KNOTS('',3,(#274,#275,#276,#277,#278,#279,#280,#281,#282,#283,#284,#285,#286,#287,#288,#289,#290,#291,#292,#293,#294,#295,#296),.UNSPECIFIED.,.F.,.U.,(4,2,2,2,2,3,2,2,2,2,4),(-1.582144720759088,-1.187376348741074,-0.792607976723061,-0.396303988361531,-0.198151994180765,0.0,0.198151994180765,0.396303988361531,0.792607976723062,1.187376348741075,1.582144720759088),.UNSPECIFIED.);
#298=EDGE_CURVE('',#248,#246,#297,.T.);
#299=ORIENTED_EDGE('',*,*,#298,.T.);
#300=EDGE_LOOP('',(#273,#299));
#301=FACE_BOUND('',#300,.T.);
#302=ADVANCED_FACE('',(#176,#233,#244,#301),#165,.T.);
#303=CARTESIAN_POINT('',(0.0,30.0,0.0));
#304=DIRECTION('',(0.0,0.0,-1.0));
#305=DIRECTION('',(0.0,1.0,0.0));
#306=AXIS2_PLACEMENT_3D('',#303,#304,#305);
#307=CYLINDRICAL_SURFACE('',#306,10.250000000000002);
#308=ORIENTED_EDGE('',*,*,#272,.F.);
#309=ORIENTED_EDGE('',*,*,#298,.F.);
#310=EDGE_LOOP('',(#308,#309));
#311=FACE_OUTER_BOUND('',#310,.T.);
#312=ORIENTED_EDGE('',*,*,#230,.F.);
#313=ORIENTED_EDGE('',*,*,#204,.F.);
#314=EDGE_LOOP('',(#312,#313));
#315=FACE_BOUND('',#314,.T.);
#316=ADVANCED_FACE('',(#311,#315),#307,.F.);
#317=CARTESIAN_POINT('',(9.5,0.0,-2.326752E-015));
#318=DIRECTION('',(0.0,-1.0,0.0));
#319=DIRECTION('',(0.0,0.0,-1.0));
#320=AXIS2_PLACEMENT_3D('',#317,#318,#319);
#321=PLANE('',#320);
#322=ORIENTED_EDGE('',*,*,#241,.F.);
#323=EDGE_LOOP('',(#322));
#324=FACE_OUTER_BOUND('',#323,.T.);
#325=ADVANCED_FACE('',(#324),#321,.T.);
#326=CARTESIAN_POINT('',(18.683333333333298,89.6328125,-4.575946E-015));
#327=DIRECTION('',(0.0,1.0,0.0));
#328=DIRECTION('',(0.0,0.0,1.0));
#329=AXIS2_PLACEMENT_3D('',#326,#327,#328);
#330=PLANE('',#329);
#331=ORIENTED_EDGE('',*,*,#173,.T.);
#332=EDGE_LOOP('',(#331));
#333=FACE_OUTER_BOUND('',#332,.T.);
#334=ORIENTED_EDGE('',*,*,#119,.F.);
#335=EDGE_LOOP('',(#334));
#336=FACE_BOUND('',#335,.T.);
#337=ADVANCED_FACE('',(#333,#336),#330,.T.);
#338=CARTESIAN_POINT('',(18.683333333333298,109.484375,-4.575946E-015));
#339=DIRECTION('',(0.0,-1.0,0.0));
#340=DIRECTION('',(0.0,0.0,-1.0));
#341=AXIS2_PLACEMENT_3D('',#338,#339,#340);
#342=PLANE('',#341);
#343=ORIENTED_EDGE('',*,*,#91,.F.);
#344=EDGE_LOOP('',(#343));
#345=FACE_OUTER_BOUND('',#344,.T.);
#346=ORIENTED_EDGE('',*,*,#108,.T.);
#347=EDGE_LOOP('',(#346));
#348=FACE_BOUND('',#347,.T.);
#349=ADVANCED_FACE('',(#345,#348),#342,.T.);
#350=CARTESIAN_POINT('',(9.5,115.5,-2.326752E-015));
#351=DIRECTION('',(0.0,1.0,0.0));
#352=DIRECTION('',(0.0,0.0,1.0));
#353=AXIS2_PLACEMENT_3D('',#350,#351,#352);
#354=PLANE('',#353);
#355=ORIENTED_EDGE('',*,*,#80,.T.);
#356=EDGE_LOOP('',(#355));
#357=FACE_OUTER_BOUND('',#356,.T.);
#358=ORIENTED_EDGE('',*,*,#147,.T.);
#359=EDGE_LOOP('',(#358));
#360=FACE_BOUND('',#359,.T.);
#361=ADVANCED_FACE('',(#357,#360),#354,.T.);
#362=CLOSED_SHELL('',(#95,#123,#151,#160,#302,#316,#325,#337,#349,#361));
#363=MANIFOLD_SOLID_BREP('1',#362);
#364=COLOUR_RGB('RGB(237,119,81)',0.800000011920929,0.800000011920929,0.800000011920929);
#365=FILL_AREA_STYLE_COLOUR('RGB(237,119,81)',#364);
#366=FILL_AREA_STYLE('RGB(237,119,81)',(#365));
#367=SURFACE_STYLE_FILL_AREA(#366);
#368=SURFACE_SIDE_STYLE('RGB(237,119,81)',(#367));
#369=SURFACE_STYLE_USAGE(.BOTH.,#368);
#370=PRESENTATION_STYLE_ASSIGNMENT((#369));
#371=STYLED_ITEM('',(#370),#363);
#372=MECHANICAL_DESIGN_GEOMETRIC_PRESENTATION_REPRESENTATION('',(#371),#36);
#373=ADVANCED_BREP_SHAPE_REPRESENTATION('ABSR',(#363),#36);
#374=SHAPE_REPRESENTATION_RELATIONSHIP('SRR','None',#373,#41);
ENDSEC;
END-ISO-10303-21;
