ISO-10303-21;
HEADER;
/****************************************************************
 * Generated by software with PDElib inside                    *
 * PDElib Version v51a, created Wed 07/06/2011                  *
 * ITI Transcendata (http://www.transcendata.com/)              *
 ****************************************************************/
FILE_DESCRIPTION((''),'2;1');
FILE_NAME('M:\\Module\\Internet-Daten\\MSL-F + MSF\\STEP\\MSF-25.stp','2012-10-05T14:17:00',('hartung_david'),(''),'Autodesk Inventor 2012','Autodesk Inventor 2012','');
FILE_SCHEMA(('AUTOMOTIVE_DESIGN { 1 0 10303 214 1 1 1 1 }'));
ENDSEC;
DATA;
#5=APPLICATION_CONTEXT('automotive design');
#6=APPLICATION_PROTOCOL_DEFINITION('International Standard','automotive_design',2001,#5);
#7=PRODUCT_CONTEXT('',#5,'mechanical');
#8=PRODUCT('MSF-25','MSF-25',$,(#7));
#9=PRODUCT_RELATED_PRODUCT_CATEGORY('part',$,(#8));
#10=PRODUCT_DEFINITION_FORMATION('',$,#8);
#11=PRODUCT_DEFINITION_CONTEXT('part definition',#5,'design');
#12=PRODUCT_DEFINITION('',$,#10,#11);
#18=(NAMED_UNIT(*)PLANE_ANGLE_UNIT()SI_UNIT($,.RADIAN.));
#19=DIMENSIONAL_EXPONENTS(0.0,0.0,0.0,0.0,0.0,0.0,0.0);
#20=PLANE_ANGLE_MEASURE_WITH_UNIT(PLANE_ANGLE_MEASURE(0.0174532925),#18);
#24=(CONVERSION_BASED_UNIT('DEGREE',#20)NAMED_UNIT(#19)PLANE_ANGLE_UNIT());
#28=(NAMED_UNIT(*)SI_UNIT($,.STERADIAN.)SOLID_ANGLE_UNIT());
#32=(LENGTH_UNIT()NAMED_UNIT(*)SI_UNIT(.MILLI.,.METRE.));
#34=UNCERTAINTY_MEASURE_WITH_UNIT(LENGTH_MEASURE(0.01),#32,'DISTANCE_ACCURACY_VALUE','');
#36=(GEOMETRIC_REPRESENTATION_CONTEXT(3)GLOBAL_UNCERTAINTY_ASSIGNED_CONTEXT((#34))GLOBAL_UNIT_ASSIGNED_CONTEXT((#24,#28,#32))REPRESENTATION_CONTEXT('None','None'));
#37=AXIS2_PLACEMENT_3D('',#38,#39,#40);
#38=CARTESIAN_POINT('',(0.0,0.0,0.0));
#39=DIRECTION('',(0.0,0.0,1.0));
#40=DIRECTION('',(1.0,0.0,0.0));
#41=SHAPE_REPRESENTATION('',(#37),#36);
#42=PRODUCT_DEFINITION_SHAPE('','',#12);
#43=SHAPE_DEFINITION_REPRESENTATION(#42,#41);
#49=(NAMED_UNIT(*)PLANE_ANGLE_UNIT()SI_UNIT($,.RADIAN.));
#50=DIMENSIONAL_EXPONENTS(0.0,0.0,0.0,0.0,0.0,0.0,0.0);
#51=PLANE_ANGLE_MEASURE_WITH_UNIT(PLANE_ANGLE_MEASURE(0.0174532925),#49);
#55=(CONVERSION_BASED_UNIT('DEGREE',#51)NAMED_UNIT(#50)PLANE_ANGLE_UNIT());
#59=(NAMED_UNIT(*)SI_UNIT($,.STERADIAN.)SOLID_ANGLE_UNIT());
#63=(LENGTH_UNIT()NAMED_UNIT(*)SI_UNIT(.MILLI.,.METRE.));
#65=UNCERTAINTY_MEASURE_WITH_UNIT(LENGTH_MEASURE(0.000001),#63,'DISTANCE_ACCURACY_VALUE','');
#67=(GEOMETRIC_REPRESENTATION_CONTEXT(3)GLOBAL_UNCERTAINTY_ASSIGNED_CONTEXT((#65))GLOBAL_UNIT_ASSIGNED_CONTEXT((#55,#59,#63))REPRESENTATION_CONTEXT('','3D'));
#68=CARTESIAN_POINT('',(0.0,0.0,99.213256984352483));
#69=DIRECTION('',(0.0,0.0,1.0));
#70=DIRECTION('',(1.0,0.0,0.0));
#71=AXIS2_PLACEMENT_3D('',#68,#69,#70);
#72=CONICAL_SURFACE('',#71,2.1415,59.000000000000007);
#73=CARTESIAN_POINT('',(4.283,0.0,100.5));
#74=VERTEX_POINT('',#73);
#75=CARTESIAN_POINT('',(0.0,0.0,100.5));
#76=DIRECTION('',(0.0,0.0,1.0));
#77=DIRECTION('',(1.0,0.0,0.0));
#78=AXIS2_PLACEMENT_3D('',#75,#76,#77);
#79=CIRCLE('',#78,4.283);
#80=EDGE_CURVE('',#74,#74,#79,.T.);
#81=ORIENTED_EDGE('',*,*,#80,.T.);
#82=EDGE_LOOP('',(#81));
#83=FACE_OUTER_BOUND('',#82,.T.);
#84=ADVANCED_FACE('',(#83),#72,.F.);
#85=CARTESIAN_POINT('',(0.0,0.0,108.0));
#86=DIRECTION('',(0.0,0.0,1.0));
#87=DIRECTION('',(1.0,0.0,0.0));
#88=AXIS2_PLACEMENT_3D('',#85,#86,#87);
#89=CYLINDRICAL_SURFACE('',#88,4.283);
#90=CARTESIAN_POINT('',(4.283,0.0,115.5));
#91=VERTEX_POINT('',#90);
#92=CARTESIAN_POINT('',(0.0,0.0,115.5));
#93=DIRECTION('',(0.0,0.0,-1.0));
#94=DIRECTION('',(1.0,0.0,0.0));
#95=AXIS2_PLACEMENT_3D('',#92,#93,#94);
#96=CIRCLE('',#95,4.283);
#97=EDGE_CURVE('',#91,#91,#96,.T.);
#98=ORIENTED_EDGE('',*,*,#97,.F.);
#99=EDGE_LOOP('',(#98));
#100=FACE_OUTER_BOUND('',#99,.T.);
#101=ORIENTED_EDGE('',*,*,#80,.F.);
#102=EDGE_LOOP('',(#101));
#103=FACE_BOUND('',#102,.T.);
#104=ADVANCED_FACE('',(#100,#103),#89,.F.);
#105=CARTESIAN_POINT('',(0.0,0.0,30.0));
#106=DIRECTION('',(0.0,1.0,0.0));
#107=DIRECTION('',(1.0,0.0,0.0));
#108=AXIS2_PLACEMENT_3D('',#105,#106,#107);
#109=CYLINDRICAL_SURFACE('',#108,12.5);
#110=CARTESIAN_POINT('',(12.5,14.30908802125421,30.0));
#111=VERTEX_POINT('',#110);
#112=CARTESIAN_POINT('',(12.499999999999998,14.30908802125421,30.0));
#113=CARTESIAN_POINT('',(12.499999999999998,14.30908802125421,30.820482238160906));
#114=CARTESIAN_POINT('',(12.418102761388019,14.381842405357535,31.654494468517687));
#115=CARTESIAN_POINT('',(12.087898823666931,14.660469594779235,33.290794836799471));
#116=CARTESIAN_POINT('',(11.839787725411739,14.865496967123967,34.093266285891779));
#117=CARTESIAN_POINT('',(10.874888552802789,15.600992757572719,36.381892786644165));
#118=CARTESIAN_POINT('',(9.926501087126878,16.247286621192011,37.751168442536809));
#119=CARTESIAN_POINT('',(7.76233596392961,17.384620891441713,39.915333565734073));
#120=CARTESIAN_POINT('',(6.390530332121261,17.963248351024088,40.871160389395996));
#121=CARTESIAN_POINT('',(4.089751966421163,18.571570292270636,41.841312621414879));
#122=CARTESIAN_POINT('',(3.282694764056165,18.732507331451227,42.090181147293222));
#123=CARTESIAN_POINT('',(1.643869262068963,18.946783623879831,42.419591738159845));
#124=CARTESIAN_POINT('',(0.812058006611891,19.000000000000018,42.5));
#125=CARTESIAN_POINT('',(-0.812058006611895,19.000000000000018,42.5));
#126=CARTESIAN_POINT('',(-1.643869262068965,18.946783623879831,42.419591738159845));
#127=CARTESIAN_POINT('',(-3.282694764056167,18.732507331451227,42.090181147293222));
#128=CARTESIAN_POINT('',(-4.089751966421166,18.571570292270632,41.841312621414879));
#129=CARTESIAN_POINT('',(-6.390530332121265,17.963248351024085,40.871160389395996));
#130=CARTESIAN_POINT('',(-7.762335963929614,17.384620891441713,39.915333565734073));
#131=CARTESIAN_POINT('',(-9.926501087126882,16.247286621192011,37.751168442536809));
#132=CARTESIAN_POINT('',(-10.874888552802791,15.600992757572719,36.381892786644158));
#133=CARTESIAN_POINT('',(-11.839787725411743,14.865496967123967,34.093266285891772));
#134=CARTESIAN_POINT('',(-12.087898823666931,14.660469594779235,33.290794836799463));
#135=CARTESIAN_POINT('',(-12.418102761388019,14.381842405357535,31.654494468517687));
#136=CARTESIAN_POINT('',(-12.5,14.30908802125421,30.820482238160906));
#137=CARTESIAN_POINT('',(-12.5,14.30908802125421,29.179517761839094));
#138=CARTESIAN_POINT('',(-12.418102761388019,14.381842405357535,28.34550553148231));
#139=CARTESIAN_POINT('',(-12.087898823666931,14.660469594779235,26.709205163200537));
#140=CARTESIAN_POINT('',(-11.839787725411743,14.865496967123967,25.906733714108228));
#141=CARTESIAN_POINT('',(-10.874888552802791,15.600992757572719,23.618107213355838));
#142=CARTESIAN_POINT('',(-9.92650108712688,16.247286621192011,22.248831557463191));
#143=CARTESIAN_POINT('',(-7.762335963929611,17.384620891441713,20.084666434265923));
#144=CARTESIAN_POINT('',(-6.390530332121265,17.963248351024085,19.128839610604));
#145=CARTESIAN_POINT('',(-4.089751966421169,18.571570292270632,18.158687378585118));
#146=CARTESIAN_POINT('',(-3.282694764056168,18.732507331451227,17.909818852706788));
#147=CARTESIAN_POINT('',(-1.643869262068963,18.946783623879831,17.580408261840162));
#148=CARTESIAN_POINT('',(-0.812058006611892,19.000000000000018,17.5));
#149=CARTESIAN_POINT('',(0.812058006611893,19.000000000000018,17.5));
#150=CARTESIAN_POINT('',(1.643869262068964,18.946783623879831,17.580408261840162));
#151=CARTESIAN_POINT('',(3.282694764056168,18.732507331451227,17.909818852706788));
#152=CARTESIAN_POINT('',(4.089751966421169,18.571570292270632,18.158687378585114));
#153=CARTESIAN_POINT('',(6.390530332121266,17.963248351024085,19.128839610604));
#154=CARTESIAN_POINT('',(7.762335963929612,17.384620891441713,20.084666434265923));
#155=CARTESIAN_POINT('',(9.926501087126882,16.247286621192011,22.248831557463191));
#156=CARTESIAN_POINT('',(10.874888552802789,15.600992757572719,23.618107213355835));
#157=CARTESIAN_POINT('',(11.839787725411739,14.865496967123967,25.906733714108221));
#158=CARTESIAN_POINT('',(12.087898823666931,14.660469594779235,26.709205163200526));
#159=CARTESIAN_POINT('',(12.418102761388019,14.381842405357535,28.345505531482303));
#160=CARTESIAN_POINT('',(12.5,14.30908802125421,29.17951776183909));
#161=CARTESIAN_POINT('',(12.5,14.30908802125421,30.0));
#162=B_SPLINE_CURVE_WITH_KNOTS('',3,(#112,#113,#114,#115,#116,#117,#118,#119,#120,#121,#122,#123,#124,#125,#126,#127,#128,#129,#130,#131,#132,#133,#134,#135,#136,#137,#138,#139,#140,#141,#142,#143,#144,#145,#146,#147,#148,#149,#150,#151,#152,#153,#154,#155,#156,#157,#158,#159,#160,#161),.UNSPECIFIED.,.T.,.U.,(4,2,2,2,2,2,2,2,2,2,2,2,2,2,2,2,2,2,2,2,2,2,2,2,4),(0.0,0.246144671448272,0.492289342896544,0.984578685793087,1.471813489760223,1.715430891743791,1.959048293727359,2.202665695710927,2.446283097694495,2.933517901661631,3.425807244558174,3.671951916006446,3.918096587454718,4.16424125890299,4.410385930351262,4.902675273247805,5.389910077214941,5.633527479198509,5.877144881182077,6.120762283165645,6.364379685149213,6.851614489116349,7.343903832012892,7.590048503461164,7.836193174909436),.UNSPECIFIED.);
#163=EDGE_CURVE('',#111,#111,#162,.T.);
#164=ORIENTED_EDGE('',*,*,#163,.F.);
#165=EDGE_LOOP('',(#164));
#166=FACE_OUTER_BOUND('',#165,.T.);
#167=CARTESIAN_POINT('',(12.5,-14.30908802125421,30.0));
#168=VERTEX_POINT('',#167);
#169=CARTESIAN_POINT('',(12.499999999999998,-14.30908802125421,30.0));
#170=CARTESIAN_POINT('',(12.499999999999998,-14.30908802125421,29.179517761839094));
#171=CARTESIAN_POINT('',(12.418102761388019,-14.381842405357535,28.345505531482313));
#172=CARTESIAN_POINT('',(12.087898823666931,-14.660469594779235,26.709205163200529));
#173=CARTESIAN_POINT('',(11.839787725411739,-14.865496967123967,25.906733714108221));
#174=CARTESIAN_POINT('',(10.874888552802789,-15.600992757572719,23.618107213355835));
#175=CARTESIAN_POINT('',(9.926501087126882,-16.247286621192011,22.248831557463191));
#176=CARTESIAN_POINT('',(7.762335963929612,-17.384620891441713,20.084666434265923));
#177=CARTESIAN_POINT('',(6.390530332121266,-17.963248351024085,19.128839610603997));
#178=CARTESIAN_POINT('',(4.089751966421168,-18.571570292270632,18.158687378585114));
#179=CARTESIAN_POINT('',(3.282694764056167,-18.732507331451227,17.909818852706788));
#180=CARTESIAN_POINT('',(1.643869262068965,-18.946783623879831,17.580408261840159));
#181=CARTESIAN_POINT('',(0.812058006611893,-19.000000000000018,17.5));
#182=CARTESIAN_POINT('',(-0.812058006611892,-19.000000000000018,17.5));
#183=CARTESIAN_POINT('',(-1.643869262068963,-18.946783623879831,17.580408261840162));
#184=CARTESIAN_POINT('',(-3.282694764056164,-18.732507331451227,17.909818852706788));
#185=CARTESIAN_POINT('',(-4.089751966421165,-18.571570292270632,18.158687378585114));
#186=CARTESIAN_POINT('',(-6.390530332121261,-17.963248351024085,19.128839610603997));
#187=CARTESIAN_POINT('',(-7.76233596392961,-17.384620891441713,20.084666434265923));
#188=CARTESIAN_POINT('',(-9.92650108712688,-16.247286621192011,22.248831557463191));
#189=CARTESIAN_POINT('',(-10.874888552802791,-15.600992757572719,23.618107213355838));
#190=CARTESIAN_POINT('',(-11.839787725411743,-14.865496967123967,25.906733714108228));
#191=CARTESIAN_POINT('',(-12.087898823666931,-14.660469594779235,26.709205163200537));
#192=CARTESIAN_POINT('',(-12.418102761388019,-14.381842405357535,28.345505531482313));
#193=CARTESIAN_POINT('',(-12.5,-14.30908802125421,29.179517761839094));
#194=CARTESIAN_POINT('',(-12.5,-14.30908802125421,30.820482238160906));
#195=CARTESIAN_POINT('',(-12.418102761388019,-14.381842405357535,31.65449446851769));
#196=CARTESIAN_POINT('',(-12.087898823666931,-14.660469594779235,33.290794836799463));
#197=CARTESIAN_POINT('',(-11.839787725411743,-14.865496967123967,34.093266285891772));
#198=CARTESIAN_POINT('',(-10.874888552802791,-15.600992757572719,36.381892786644158));
#199=CARTESIAN_POINT('',(-9.926501087126882,-16.247286621192011,37.751168442536809));
#200=CARTESIAN_POINT('',(-7.762335963929614,-17.384620891441713,39.915333565734073));
#201=CARTESIAN_POINT('',(-6.390530332121267,-17.963248351024085,40.871160389395996));
#202=CARTESIAN_POINT('',(-4.089751966421169,-18.571570292270632,41.841312621414879));
#203=CARTESIAN_POINT('',(-3.282694764056169,-18.732507331451227,42.090181147293222));
#204=CARTESIAN_POINT('',(-1.643869262068966,-18.946783623879831,42.419591738159845));
#205=CARTESIAN_POINT('',(-0.812058006611895,-19.000000000000018,42.5));
#206=CARTESIAN_POINT('',(0.81205800661189,-19.000000000000018,42.5));
#207=CARTESIAN_POINT('',(1.643869262068962,-18.946783623879831,42.419591738159845));
#208=CARTESIAN_POINT('',(3.282694764056165,-18.732507331451224,42.090181147293222));
#209=CARTESIAN_POINT('',(4.089751966421166,-18.571570292270628,41.841312621414879));
#210=CARTESIAN_POINT('',(6.390530332121264,-17.963248351024085,40.871160389395996));
#211=CARTESIAN_POINT('',(7.76233596392961,-17.384620891441713,39.915333565734073));
#212=CARTESIAN_POINT('',(9.926501087126878,-16.247286621192011,37.751168442536809));
#213=CARTESIAN_POINT('',(10.874888552802789,-15.600992757572719,36.381892786644165));
#214=CARTESIAN_POINT('',(11.839787725411739,-14.865496967123967,34.093266285891779));
#215=CARTESIAN_POINT('',(12.087898823666931,-14.660469594779235,33.290794836799471));
#216=CARTESIAN_POINT('',(12.418102761388019,-14.381842405357535,31.654494468517697));
#217=CARTESIAN_POINT('',(12.499999999999998,-14.30908802125421,30.82048223816091));
#218=CARTESIAN_POINT('',(12.499999999999998,-14.30908802125421,30.0));
#219=B_SPLINE_CURVE_WITH_KNOTS('',3,(#169,#170,#171,#172,#173,#174,#175,#176,#177,#178,#179,#180,#181,#182,#183,#184,#185,#186,#187,#188,#189,#190,#191,#192,#193,#194,#195,#196,#197,#198,#199,#200,#201,#202,#203,#204,#205,#206,#207,#208,#209,#210,#211,#212,#213,#214,#215,#216,#217,#218),.UNSPECIFIED.,.T.,.U.,(4,2,2,2,2,2,2,2,2,2,2,2,2,2,2,2,2,2,2,2,2,2,2,2,4),(0.0,0.246144671448272,0.492289342896544,0.984578685793088,1.471813489760223,1.715430891743791,1.959048293727359,2.202665695710927,2.446283097694495,2.933517901661631,3.425807244558174,3.671951916006446,3.918096587454718,4.16424125890299,4.410385930351262,4.902675273247805,5.389910077214941,5.633527479198509,5.877144881182077,6.120762283165645,6.364379685149213,6.851614489116349,7.343903832012892,7.590048503461164,7.836193174909436),.UNSPECIFIED.);
#220=EDGE_CURVE('',#168,#168,#219,.T.);
#221=ORIENTED_EDGE('',*,*,#220,.F.);
#222=EDGE_LOOP('',(#221));
#223=FACE_BOUND('',#222,.T.);
#224=ADVANCED_FACE('',(#166,#223),#109,.F.);
#225=CARTESIAN_POINT('',(9.500000000000007,0.0,115.5));
#226=DIRECTION('',(0.0,0.0,1.0));
#227=DIRECTION('',(1.0,0.0,0.0));
#228=AXIS2_PLACEMENT_3D('',#225,#226,#227);
#229=PLANE('',#228);
#230=CARTESIAN_POINT('',(19.000000000000014,0.0,115.5));
#231=VERTEX_POINT('',#230);
#232=CARTESIAN_POINT('',(0.0,0.0,115.5));
#233=DIRECTION('',(0.0,0.0,-1.0));
#234=DIRECTION('',(1.0,0.0,0.0));
#235=AXIS2_PLACEMENT_3D('',#232,#233,#234);
#236=CIRCLE('',#235,19.000000000000014);
#237=EDGE_CURVE('',#231,#231,#236,.T.);
#238=ORIENTED_EDGE('',*,*,#237,.F.);
#239=EDGE_LOOP('',(#238));
#240=FACE_OUTER_BOUND('',#239,.T.);
#241=ORIENTED_EDGE('',*,*,#97,.T.);
#242=EDGE_LOOP('',(#241));
#243=FACE_BOUND('',#242,.T.);
#244=ADVANCED_FACE('',(#240,#243),#229,.T.);
#245=CARTESIAN_POINT('',(0.0,0.0,57.75));
#246=DIRECTION('',(0.0,0.0,-1.0));
#247=DIRECTION('',(1.0,0.0,0.0));
#248=AXIS2_PLACEMENT_3D('',#245,#246,#247);
#249=CYLINDRICAL_SURFACE('',#248,19.000000000000018);
#250=CARTESIAN_POINT('',(19.000000000000025,0.0,-3.187690E-015));
#251=VERTEX_POINT('',#250);
#252=CARTESIAN_POINT('',(0.0,0.0,0.0));
#253=DIRECTION('',(0.0,0.0,-1.0));
#254=DIRECTION('',(1.0,0.0,0.0));
#255=AXIS2_PLACEMENT_3D('',#252,#253,#254);
#256=CIRCLE('',#255,19.000000000000025);
#257=EDGE_CURVE('',#251,#251,#256,.T.);
#258=ORIENTED_EDGE('',*,*,#257,.F.);
#259=EDGE_LOOP('',(#258));
#260=FACE_OUTER_BOUND('',#259,.T.);
#261=ORIENTED_EDGE('',*,*,#163,.T.);
#262=EDGE_LOOP('',(#261));
#263=FACE_BOUND('',#262,.T.);
#264=ORIENTED_EDGE('',*,*,#220,.T.);
#265=EDGE_LOOP('',(#264));
#266=FACE_BOUND('',#265,.T.);
#267=ORIENTED_EDGE('',*,*,#237,.T.);
#268=EDGE_LOOP('',(#267));
#269=FACE_BOUND('',#268,.T.);
#270=ADVANCED_FACE('',(#260,#263,#266,#269),#249,.T.);
#271=CARTESIAN_POINT('',(9.500000000000014,0.0,-1.871401E-015));
#272=DIRECTION('',(0.0,0.0,-1.0));
#273=DIRECTION('',(-1.0,0.0,0.0));
#274=AXIS2_PLACEMENT_3D('',#271,#272,#273);
#275=PLANE('',#274);
#276=ORIENTED_EDGE('',*,*,#257,.T.);
#277=EDGE_LOOP('',(#276));
#278=FACE_OUTER_BOUND('',#277,.T.);
#279=ADVANCED_FACE('',(#278),#275,.T.);
#280=CLOSED_SHELL('',(#84,#104,#224,#244,#270,#279));
#281=MANIFOLD_SOLID_BREP('Volumenk\S\vrper1',#280);
#282=COLOUR_RGB('',0.800000011920929,0.800000011920929,0.800000011920929);
#283=FILL_AREA_STYLE_COLOUR('',#282);
#284=FILL_AREA_STYLE('',(#283));
#285=SURFACE_STYLE_FILL_AREA(#284);
#286=SURFACE_SIDE_STYLE('',(#285));
#287=SURFACE_STYLE_USAGE(.BOTH.,#286);
#288=PRESENTATION_STYLE_ASSIGNMENT((#287));
#289=STYLED_ITEM('',(#288),#244);
#290=STYLED_ITEM('',(#288),#270);
#291=COLOUR_RGB('',0.831372559070587,0.0,0.0);
#292=FILL_AREA_STYLE_COLOUR('',#291);
#293=FILL_AREA_STYLE('',(#292));
#294=SURFACE_STYLE_FILL_AREA(#293);
#295=SURFACE_SIDE_STYLE('',(#294));
#296=SURFACE_STYLE_USAGE(.BOTH.,#295);
#297=PRESENTATION_STYLE_ASSIGNMENT((#296));
#298=STYLED_ITEM('',(#297),#279);
#299=MECHANICAL_DESIGN_GEOMETRIC_PRESENTATION_REPRESENTATION('',(#289,#290,#298,#307),#67);
#300=COLOUR_RGB('RGB(237,119,81)',0.800000011920929,0.800000011920929,0.800000011920929);
#301=FILL_AREA_STYLE_COLOUR('RGB(237,119,81)',#300);
#302=FILL_AREA_STYLE('RGB(237,119,81)',(#301));
#303=SURFACE_STYLE_FILL_AREA(#302);
#304=SURFACE_SIDE_STYLE('RGB(237,119,81)',(#303));
#305=SURFACE_STYLE_USAGE(.BOTH.,#304);
#306=PRESENTATION_STYLE_ASSIGNMENT((#305));
#307=STYLED_ITEM('',(#306),#281);
#308=ADVANCED_BREP_SHAPE_REPRESENTATION('ABSR',(#281),#36);
#309=SHAPE_REPRESENTATION_RELATIONSHIP('SRR','None',#308,#41);
ENDSEC;
END-ISO-10303-21;
