  0
SECTION
  2
HEADER
  9
$ACADVER
  1
AC1014
  9
$ACADMAINTVER
 70
     0
  9
$DWGCODEPAGE
  3
ANSI_1252
  9
$INSBASE
 10
0.0
 20
0.0
 30
0.0
  9
$EXTMIN
 10
547.307048
 20
1184.260983
 30
0.0
  9
$EXTMAX
 10
1138.191611
 20
1398.124695
 30
0.0
  9
$LIMMIN
 10
0.0
 20
0.0
  9
$LIMMAX
 10
420.0
 20
297.0
  9
$ORTHOMODE
 70
     0
  9
$REGENMODE
 70
     1
  9
$FILLMODE
 70
     1
  9
$QTEXTMODE
 70
     0
  9
$MIRRTEXT
 70
     1
  9
$DRAGMODE
 70
     2
  9
$LTSCALE
 40
1.0
  9
$OSMODE
 70
   679
  9
$ATTMODE
 70
     1
  9
$TEXTSIZE
 40
3.5
  9
$TRACEWID
 40
1.0
  9
$TEXTSTYLE
  7
STANDARD
  9
$CLAYER
  8
0
  9
$CELTYPE
  6
BYLAYER
  9
$CECOLOR
 62
   256
  9
$CELTSCALE
 40
1.0
  9
$DELOBJ
 70
     1
  9
$DISPSILH
 70
     0
  9
$DIMSCALE
 40
1.0
  9
$DIMASZ
 40
4.0
  9
$DIMEXO
 40
1.0
  9
$DIMDLI
 40
10.0
  9
$DIMRND
 40
0.0
  9
$DIMDLE
 40
0.0
  9
$DIMEXE
 40
2.0
  9
$DIMTP
 40
0.1
  9
$DIMTM
 40
0.1
  9
$DIMTXT
 40
7.0
  9
$DIMCEN
 40
-2.0
  9
$DIMTSZ
 40
0.0
  9
$DIMTOL
 70
     0
  9
$DIMLIM
 70
     0
  9
$DIMTIH
 70
     0
  9
$DIMTOH
 70
     0
  9
$DIMSE1
 70
     0
  9
$DIMSE2
 70
     0
  9
$DIMTAD
 70
     1
  9
$DIMZIN
 70
     8
  9
$DIMBLK
  1

  9
$DIMASO
 70
     1
  9
$DIMSHO
 70
     1
  9
$DIMPOST
  1

  9
$DIMAPOST
  1

  9
$DIMALT
 70
     0
  9
$DIMALTD
 70
     2
  9
$DIMALTF
 40
25.4
  9
$DIMLFAC
 40
1.0
  9
$DIMTOFL
 70
     1
  9
$DIMTVP
 40
0.0
  9
$DIMTIX
 70
     0
  9
$DIMSOXD
 70
     0
  9
$DIMSAH
 70
     0
  9
$DIMBLK1
  1

  9
$DIMBLK2
  1

  9
$DIMSTYLE
  2
GEN-ISO
  9
$DIMCLRD
 70
     0
  9
$DIMCLRE
 70
     0
  9
$DIMCLRT
 70
   256
  9
$DIMTFAC
 40
1.0
  9
$DIMGAP
 40
0.75
  9
$DIMJUST
 70
     0
  9
$DIMSD1
 70
     0
  9
$DIMSD2
 70
     0
  9
$DIMTOLJ
 70
     0
  9
$DIMTZIN
 70
     8
  9
$DIMALTZ
 70
     8
  9
$DIMALTTZ
 70
     8
  9
$DIMFIT
 70
     3
  9
$DIMUPT
 70
     0
  9
$DIMUNIT
 70
     2
  9
$DIMDEC
 70
     2
  9
$DIMTDEC
 70
     5
  9
$DIMALTU
 70
     2
  9
$DIMALTTD
 70
     2
  9
$DIMTXSTY
  7
STANDARD
  9
$DIMAUNIT
 70
     0
  9
$LUNITS
 70
     2
  9
$LUPREC
 70
     4
  9
$SKETCHINC
 40
1.0
  9
$FILLETRAD
 40
0.0
  9
$AUNITS
 70
     0
  9
$AUPREC
 70
     0
  9
$MENU
  1
acad
  9
$ELEVATION
 40
0.0
  9
$PELEVATION
 40
0.0
  9
$THICKNESS
 40
0.0
  9
$LIMCHECK
 70
     0
  9
$BLIPMODE
 70
     0
  9
$CHAMFERA
 40
10.0
  9
$CHAMFERB
 40
10.0
  9
$CHAMFERC
 40
0.0
  9
$CHAMFERD
 40
0.0
  9
$SKPOLY
 70
     0
  9
$TDCREATE
 40
2452399.556433333
  9
$TDUPDATE
 40
2452452.031894907
  9
$TDINDWG
 40
0.1687578704
  9
$TDUSRTIMER
 40
0.1687578704
  9
$USRTIMER
 70
     1
  9
$ANGBASE
 50
0.0
  9
$ANGDIR
 70
     0
  9
$PDMODE
 70
     0
  9
$PDSIZE
 40
0.0
  9
$PLINEWID
 40
0.0
  9
$COORDS
 70
     2
  9
$SPLFRAME
 70
     0
  9
$SPLINETYPE
 70
     6
  9
$SPLINESEGS
 70
     8
  9
$ATTDIA
 70
     1
  9
$ATTREQ
 70
     1
  9
$HANDLING
 70
     1
  9
$HANDSEED
  5
75A3
  9
$SURFTAB1
 70
     6
  9
$SURFTAB2
 70
     6
  9
$SURFTYPE
 70
     6
  9
$SURFU
 70
     6
  9
$SURFV
 70
     6
  9
$UCSNAME
  2

  9
$UCSORG
 10
0.0
 20
0.0
 30
0.0
  9
$UCSXDIR
 10
1.0
 20
0.0
 30
0.0
  9
$UCSYDIR
 10
0.0
 20
1.0
 30
0.0
  9
$PUCSNAME
  2

  9
$PUCSORG
 10
0.0
 20
0.0
 30
0.0
  9
$PUCSXDIR
 10
1.0
 20
0.0
 30
0.0
  9
$PUCSYDIR
 10
0.0
 20
1.0
 30
0.0
  9
$USERI1
 70
     0
  9
$USERI2
 70
     0
  9
$USERI3
 70
     0
  9
$USERI4
 70
     0
  9
$USERI5
 70
     0
  9
$USERR1
 40
0.0
  9
$USERR2
 40
0.0
  9
$USERR3
 40
0.0
  9
$USERR4
 40
0.0
  9
$USERR5
 40
0.0
  9
$WORLDVIEW
 70
     1
  9
$SHADEDGE
 70
     3
  9
$SHADEDIF
 70
    70
  9
$TILEMODE
 70
     1
  9
$MAXACTVP
 70
    16
  9
$PINSBASE
 10
0.0
 20
0.0
 30
0.0
  9
$PLIMCHECK
 70
     0
  9
$PEXTMIN
 10
1.000000E+20
 20
1.000000E+20
 30
1.000000E+20
  9
$PEXTMAX
 10
-1.000000E+20
 20
-1.000000E+20
 30
-1.000000E+20
  9
$PLIMMIN
 10
0.0
 20
0.0
  9
$PLIMMAX
 10
420.0
 20
297.0
  9
$UNITMODE
 70
     0
  9
$VISRETAIN
 70
     0
  9
$PLINEGEN
 70
     0
  9
$PSLTSCALE
 70
     1
  9
$TREEDEPTH
 70
  3020
  9
$PICKSTYLE
 70
     1
  9
$CMLSTYLE
  2
STANDARD
  9
$CMLJUST
 70
     0
  9
$CMLSCALE
 40
1.0
  9
$PROXYGRAPHICS
 70
     1
  9
$MEASUREMENT
 70
     1
  0
ENDSEC
  0
SECTION
  2
CLASSES
  0
CLASS
  1
HATCH
  2
AcDbHatch
  3
"ACAD_SEDONA"
 90
        0
280
     0
281
     1
  0
CLASS
  1
LWPOLYLINE
  2
AcDbPolyline
  3
"AutoCAD"
 90
        0
280
     0
281
     1
  0
CLASS
  1
DICTIONARYVAR
  2
AcDbDictionaryVar
  3
"AutoCAD"
 90
        0
280
     0
281
     0
  0
CLASS
  1
OLE2FRAME
  2
AcDbOle2Frame
  3
""
 90
        0
280
     0
281
     1
  0
ENDSEC
  0
SECTION
  2
TABLES
  0
TABLE
  2
VPORT
  5
8
100
AcDbSymbolTable
 70
     6
  0
VPORT
  5
75A2
100
AcDbSymbolTableRecord
100
AcDbViewportTableRecord
  2
*ACTIVE
 70
     0
 10
0.0
 20
0.0
 11
1.0
 21
1.0
 12
842.74933
 22
1291.192839
 13
0.0
 23
0.0
 14
1.0
 24
1.0
 15
10.0
 25
10.0
 16
0.0
 26
0.0
 36
1.0
 17
0.0
 27
0.0
 37
0.0
 40
346.539258
 41
1.716141
 42
50.0
 43
0.0
 44
0.0
 50
0.0
 51
0.0
 71
     0
 72
   100
 73
     1
 74
     0
 75
     0
 76
     0
 77
     0
 78
     0
  0
ENDTAB
  0
TABLE
  2
LTYPE
  5
5
100
AcDbSymbolTable
 70
     3
  0
LTYPE
  5
12
100
AcDbSymbolTableRecord
100
AcDbLinetypeTableRecord
  2
BYBLOCK
 70
     0
  3

 72
    65
 73
     0
 40
0.0
  0
LTYPE
  5
13
100
AcDbSymbolTableRecord
100
AcDbLinetypeTableRecord
  2
BYLAYER
 70
     0
  3

 72
    65
 73
     0
 40
0.0
  0
LTYPE
  5
14
100
AcDbSymbolTableRecord
100
AcDbLinetypeTableRecord
  2
CONTINUOUS
 70
     0
  3
Solid line
 72
    65
 73
     0
 40
0.0
  0
LTYPE
  5
1E
100
AcDbSymbolTableRecord
100
AcDbLinetypeTableRecord
  2
GEN3A
 70
     0
  3
 - - - - -
 72
    65
 73
     2
 40
3.1
 49
2.5
 74
     0
 49
-0.6
 74
     0
  0
LTYPE
  5
20
100
AcDbSymbolTableRecord
100
AcDbLinetypeTableRecord
  2
GEN7A
 70
     0
  3
__ . __ . __
 72
    65
 73
     4
 40
7.5
 49
5.0
 74
     0
 49
-1.25
 74
     0
 49
0.0
 74
     0
 49
-1.25
 74
     0
  0
ENDTAB
  0
TABLE
  2
LAYER
  5
2
100
AcDbSymbolTable
 70
    11
  0
LAYER
  5
F
100
AcDbSymbolTableRecord
100
AcDbLayerTableRecord
  2
0
 70
     0
 62
     7
  6
CONTINUOUS
  0
LAYER
  5
6508
100
AcDbSymbolTableRecord
100
AcDbLayerTableRecord
  2
MSL-90-P25-R-0
 70
     0
 62
     7
  6
CONTINUOUS
  0
LAYER
  5
6509
100
AcDbSymbolTableRecord
100
AcDbLayerTableRecord
  2
MSL-90-P25-R-3A
 70
     0
 62
     6
  6
GEN3A
  0
LAYER
  5
650A
100
AcDbSymbolTableRecord
100
AcDbLayerTableRecord
  2
MSL-90-P25-R-5
 70
     0
 62
     3
  6
CONTINUOUS
  0
LAYER
  5
650B
100
AcDbSymbolTableRecord
100
AcDbLayerTableRecord
  2
MSL-90-P25-R-7A
 70
     0
 62
     4
  6
GEN7A
  0
LAYER
  5
759F
100
AcDbSymbolTableRecord
100
AcDbLayerTableRecord
  2
MSL-90-P25-R-6
 70
     0
 62
     2
  6
CONTINUOUS
  0
ENDTAB
  0
TABLE
  2
STYLE
  5
3
100
AcDbSymbolTable
 70
     1
  0
STYLE
  5
10
100
AcDbSymbolTableRecord
100
AcDbTextStyleTableRecord
  2
STANDARD
 70
     0
 40
0.0
 41
1.0
 50
0.0
 71
     0
 42
3.5
  3
ISOCP.SHX
  4

  0
ENDTAB
  0
TABLE
  2
VIEW
  5
6
100
AcDbSymbolTable
 70
     0
  0
ENDTAB
  0
TABLE
  2
UCS
  5
7
100
AcDbSymbolTable
 70
     0
  0
ENDTAB
  0
TABLE
  2
APPID
  5
9
100
AcDbSymbolTable
 70
     3
  0
APPID
  5
11
100
AcDbSymbolTableRecord
100
AcDbRegAppTableRecord
  2
ACAD
 70
     0
  0
APPID
  5
397E
100
AcDbSymbolTableRecord
100
AcDbRegAppTableRecord
  2
CONTENTBLOCKICON
 70
     0
  0
APPID
  5
397F
100
AcDbSymbolTableRecord
100
AcDbRegAppTableRecord
  2
CONTENTBLOCKDESCRIPTION
 70
     0
  0
ENDTAB
  0
TABLE
  2
DIMSTYLE
  5
A
100
AcDbSymbolTable
 70
     1
  0
DIMSTYLE
105
24
100
AcDbSymbolTableRecord
100
AcDbDimStyleTableRecord
  2
GEN-ISO
 70
     0
  3

  4

  5

  6

  7

 40
1.0
 41
4.0
 42
1.0
 43
10.0
 44
2.0
 45
0.0
 46
0.0
 47
0.1
 48
0.1
140
7.0
141
-2.0
142
0.0
143
25.4
144
1.0
145
0.0
146
1.0
147
0.75
 71
     0
 72
     0
 73
     0
 74
     0
 75
     0
 76
     0
 77
     1
 78
     8
170
     0
171
     2
172
     1
173
     0
174
     0
175
     0
176
     0
177
     0
178
   256
270
     2
271
     2
272
     5
273
     2
274
     2
340
10
275
     0
280
     0
281
     0
282
     0
283
     0
284
     8
285
     8
286
     8
287
     3
288
     0
  0
ENDTAB
  0
TABLE
  2
BLOCK_RECORD
  5
1
100
AcDbSymbolTable
 70
    38
  0
BLOCK_RECORD
  5
18
100
AcDbSymbolTableRecord
100
AcDbBlockTableRecord
  2
*MODEL_SPACE
  0
BLOCK_RECORD
  5
15
100
AcDbSymbolTableRecord
100
AcDbBlockTableRecord
  2
*PAPER_SPACE
  0
ENDTAB
  0
ENDSEC
  0
SECTION
  2
BLOCKS
  0
BLOCK
  5
44
100
AcDbEntity
  8
0
100
AcDbBlockBegin
  2
*MODEL_SPACE
 70
     0
 10
0.0
 20
0.0
 30
0.0
  3
*MODEL_SPACE
  1

  0
ENDBLK
  5
45
100
AcDbEntity
  8
0
100
AcDbBlockEnd
  0
BLOCK
  5
42
100
AcDbEntity
 67
     1
  8
0
100
AcDbBlockBegin
  2
*PAPER_SPACE
 70
     0
 10
0.0
 20
0.0
 30
0.0
  3
*PAPER_SPACE
  1

  0
ENDBLK
  5
43
100
AcDbEntity
 67
     1
  8
0
100
AcDbBlockEnd
  0
ENDSEC
  0
SECTION
  2
ENTITIES
  0
LINE
  5
16DA
100
AcDbEntity
  8
MSL-90-P25-R-0
 48
2.0
100
AcDbLine
 10
1063.500865
 20
1308.909605
 30
0.0
 11
1060.500865
 21
1308.909605
 31
0.0
1001
ACAD
1000
RTLwPs
1070
   128
  0
LINE
  5
16DB
100
AcDbEntity
  8
MSL-90-P25-R-0
 48
2.0
100
AcDbLine
 10
1049.000865
 20
1308.909605
 30
0.0
 11
1046.000865
 21
1308.909605
 31
0.0
1001
ACAD
1000
RTLwPs
1070
   128
  0
LINE
  5
16DC
100
AcDbEntity
  8
MSL-90-P25-R-0
 48
2.0
100
AcDbLine
 10
1130.375865
 20
1308.909605
 30
0.0
 11
1127.375865
 21
1308.909605
 31
0.0
1001
ACAD
1000
RTLwPs
1070
   128
  0
LINE
  5
16DD
100
AcDbEntity
  8
MSL-90-P25-R-0
 48
2.0
100
AcDbLine
 10
1130.375865
 20
1309.409605
 30
0.0
 11
1130.375865
 21
1308.909605
 31
0.0
1001
ACAD
1000
RTLwPs
1070
   128
  0
LINE
  5
16DE
100
AcDbEntity
  8
MSL-90-P25-R-0
 48
2.0
100
AcDbLine
 10
1050.438365
 20
1308.909605
 30
0.0
 11
1049.000865
 21
1308.909605
 31
0.0
1001
ACAD
1000
RTLwPs
1070
   128
  0
LINE
  5
16DF
100
AcDbEntity
  8
MSL-90-P25-R-0
 48
2.0
100
AcDbLine
 10
1060.500865
 20
1308.909605
 30
0.0
 11
1058.938365
 21
1308.909605
 31
0.0
1001
ACAD
1000
RTLwPs
1070
   128
  0
ARC
  5
16E0
100
AcDbEntity
  8
MSL-90-P25-R-0
 48
2.0
100
AcDbCircle
 10
1117.438365
 20
1309.109605
 30
0.0
 40
0.2
100
AcDbArc
 50
270.0
 51
0.0
1001
ACAD
1000
RTLwPs
1070
   128
  0
LINE
  5
16E1
100
AcDbEntity
  8
MSL-90-P25-R-0
 48
2.0
100
AcDbLine
 10
1117.638365
 20
1309.409605
 30
0.0
 11
1117.638365
 21
1309.109605
 31
0.0
1001
ACAD
1000
RTLwPs
1070
   128
  0
ARC
  5
16E2
100
AcDbEntity
  8
MSL-90-P25-R-0
 48
2.0
100
AcDbCircle
 10
1058.938365
 20
1309.109605
 30
0.0
 40
0.2
100
AcDbArc
 50
180.0
 51
270.0
1001
ACAD
1000
RTLwPs
1070
   128
  0
LINE
  5
16E4
100
AcDbEntity
  8
MSL-90-P25-R-0
 48
2.0
100
AcDbLine
 10
1063.500865
 20
1309.409605
 30
0.0
 11
1063.500865
 21
1308.909605
 31
0.0
1001
ACAD
1000
RTLwPs
1070
   128
  0
LINE
  5
16E5
100
AcDbEntity
  8
MSL-90-P25-R-0
 48
2.0
100
AcDbLine
 10
1050.638365
 20
1309.409605
 30
0.0
 11
1050.638365
 21
1309.109605
 31
0.0
1001
ACAD
1000
RTLwPs
1070
   128
  0
LINE
  5
16E6
100
AcDbEntity
  8
MSL-90-P25-R-0
 48
2.0
100
AcDbLine
 10
1058.738365
 20
1309.109605
 30
0.0
 11
1058.738365
 21
1309.409605
 31
0.0
1001
ACAD
1000
RTLwPs
1070
   128
  0
ARC
  5
16E7
100
AcDbEntity
  8
MSL-90-P25-R-0
 48
2.0
100
AcDbCircle
 10
1050.438365
 20
1309.109605
 30
0.0
 40
0.2
100
AcDbArc
 50
270.0
 51
0.0
1001
ACAD
1000
RTLwPs
1070
   128
  0
LINE
  5
16E8
100
AcDbEntity
  8
MSL-90-P25-R-0
 48
2.0
100
AcDbLine
 10
1125.738365
 20
1309.109605
 30
0.0
 11
1125.738365
 21
1309.409605
 31
0.0
1001
ACAD
1000
RTLwPs
1070
   128
  0
LINE
  5
16E9
100
AcDbEntity
  8
MSL-90-P25-R-0
 48
2.0
100
AcDbLine
 10
1117.438365
 20
1308.909605
 30
0.0
 11
1115.875865
 21
1308.909605
 31
0.0
1001
ACAD
1000
RTLwPs
1070
   128
  0
LINE
  5
16EA
100
AcDbEntity
  8
MSL-90-P25-R-0
 48
2.0
100
AcDbLine
 10
1115.875865
 20
1308.909605
 30
0.0
 11
1112.875865
 21
1308.909605
 31
0.0
1001
ACAD
1000
RTLwPs
1070
   128
  0
LINE
  5
16EB
100
AcDbEntity
  8
MSL-90-P25-R-0
 48
2.0
100
AcDbLine
 10
1127.375865
 20
1308.909605
 30
0.0
 11
1125.938365
 21
1308.909605
 31
0.0
1001
ACAD
1000
RTLwPs
1070
   128
  0
ARC
  5
16EC
100
AcDbEntity
  8
MSL-90-P25-R-0
 48
2.0
100
AcDbCircle
 10
1125.938365
 20
1309.109605
 30
0.0
 40
0.2
100
AcDbArc
 50
180.0
 51
270.0
1001
ACAD
1000
RTLwPs
1070
   128
  0
LINE
  5
16ED
100
AcDbEntity
  8
MSL-90-P25-R-0
 48
2.0
100
AcDbLine
 10
1112.875865
 20
1309.409605
 30
0.0
 11
1112.875865
 21
1308.909605
 31
0.0
1001
ACAD
1000
RTLwPs
1070
   128
  0
LINE
  5
16EE
100
AcDbEntity
  8
MSL-90-P25-R-0
 48
2.0
100
AcDbLine
 10
1063.500865
 20
1308.909605
 30
0.0
 11
1072.988365
 21
1308.909605
 31
0.0
1001
ACAD
1000
RTLwPs
1070
   128
  0
ARC
  5
16EF
100
AcDbEntity
  8
MSL-90-P25-R-0
 48
2.0
100
AcDbCircle
 10
1072.988365
 20
1309.109605
 30
0.0
 40
0.2
100
AcDbArc
 50
270.0
 51
0.0
1001
ACAD
1000
RTLwPs
1070
   128
  0
LINE
  5
16F0
100
AcDbEntity
  8
MSL-90-P25-R-0
 48
2.0
100
AcDbLine
 10
1073.188365
 20
1309.109605
 30
0.0
 11
1073.188365
 21
1309.209605
 31
0.0
1001
ACAD
1000
RTLwPs
1070
   128
  0
ARC
  5
16F1
100
AcDbEntity
  8
MSL-90-P25-R-0
 48
2.0
100
AcDbCircle
 10
1102.988365
 20
1309.209605
 30
0.0
 40
0.2
100
AcDbArc
 50
0.0
 51
90.0
1001
ACAD
1000
RTLwPs
1070
   128
  0
ARC
  5
16F2
100
AcDbEntity
  8
MSL-90-P25-R-0
 48
2.0
100
AcDbCircle
 10
1073.388365
 20
1309.209605
 30
0.0
 40
0.2
100
AcDbArc
 50
90.0
 51
180.0
1001
ACAD
1000
RTLwPs
1070
   128
  0
LINE
  5
16F3
100
AcDbEntity
  8
MSL-90-P25-R-0
 48
2.0
100
AcDbLine
 10
1103.388365
 20
1308.909605
 30
0.0
 11
1112.875865
 21
1308.909605
 31
0.0
1001
ACAD
1000
RTLwPs
1070
   128
  0
LINE
  5
16F4
100
AcDbEntity
  8
MSL-90-P25-R-0
 48
2.0
100
AcDbLine
 10
1103.188365
 20
1309.209605
 30
0.0
 11
1103.188365
 21
1309.109605
 31
0.0
1001
ACAD
1000
RTLwPs
1070
   128
  0
ARC
  5
16F5
100
AcDbEntity
  8
MSL-90-P25-R-0
 48
2.0
100
AcDbCircle
 10
1103.388365
 20
1309.109605
 30
0.0
 40
0.2
100
AcDbArc
 50
180.0
 51
270.0
1001
ACAD
1000
RTLwPs
1070
   128
  0
LINE
  5
16F6
100
AcDbEntity
  8
MSL-90-P25-R-0
 48
2.0
100
AcDbLine
 10
1130.375865
 20
1308.909605
 30
0.0
 11
1132.988365
 21
1308.909605
 31
0.0
1001
ACAD
1000
RTLwPs
1070
   128
  0
ARC
  5
16F7
100
AcDbEntity
  8
MSL-90-P25-R-0
 48
2.0
100
AcDbCircle
 10
1132.988365
 20
1309.109605
 30
0.0
 40
0.2
100
AcDbArc
 50
270.0
 51
0.0
1001
ACAD
1000
RTLwPs
1070
   128
  0
LINE
  5
16F8
100
AcDbEntity
  8
MSL-90-P25-R-0
 48
2.0
100
AcDbLine
 10
1133.188365
 20
1309.109605
 30
0.0
 11
1133.188365
 21
1309.409605
 31
0.0
1001
ACAD
1000
RTLwPs
1070
   128
  0
LINE
  5
16F9
100
AcDbEntity
  8
MSL-90-P25-R-0
 48
2.0
100
AcDbLine
 10
1043.188365
 20
1309.409605
 30
0.0
 11
1043.188365
 21
1309.109605
 31
0.0
1001
ACAD
1000
RTLwPs
1070
   128
  0
ARC
  5
16FA
100
AcDbEntity
  8
MSL-90-P25-R-0
 48
2.0
100
AcDbCircle
 10
1043.388365
 20
1309.109605
 30
0.0
 40
0.2
100
AcDbArc
 50
180.0
 51
270.0
1001
ACAD
1000
RTLwPs
1070
   128
  0
LINE
  5
16FB
100
AcDbEntity
  8
MSL-90-P25-R-0
 48
2.0
100
AcDbLine
 10
1043.388365
 20
1308.909605
 30
0.0
 11
1046.000865
 21
1308.909605
 31
0.0
1001
ACAD
1000
RTLwPs
1070
   128
  0
LINE
  5
16FC
100
AcDbEntity
  8
MSL-90-P25-R-0
 48
2.0
100
AcDbLine
 10
1138.188365
 20
1382.909605
 30
0.0
 11
1137.938365
 21
1382.909605
 31
0.0
1001
ACAD
1000
RTLwPs
1070
   128
  0
LINE
  5
16FD
100
AcDbEntity
  8
MSL-90-P25-R-0
 48
2.0
100
AcDbLine
 10
1075.688365
 20
1393.909605
 30
0.0
 11
1038.688365
 21
1393.909605
 31
0.0
1001
ACAD
1000
RTLwPs
1070
   128
  0
LINE
  5
16FE
100
AcDbEntity
  8
MSL-90-P25-R-0
 48
2.0
100
AcDbLine
 10
1138.188365
 20
1393.409605
 30
0.0
 11
1138.188365
 21
1382.909605
 31
0.0
1001
ACAD
1000
RTLwPs
1070
   128
  0
LINE
  5
16FF
100
AcDbEntity
  8
MSL-90-P25-R-0
 48
2.0
100
AcDbLine
 10
1137.688365
 20
1393.909605
 30
0.0
 11
1100.688365
 21
1393.909605
 31
0.0
1001
ACAD
1000
RTLwPs
1070
   128
  0
LINE
  5
1700
100
AcDbEntity
  8
MSL-90-P25-R-0
 48
2.0
100
AcDbLine
 10
1038.438365
 20
1382.909605
 30
0.0
 11
1038.188365
 21
1382.909605
 31
0.0
1001
ACAD
1000
RTLwPs
1070
   128
  0
LINE
  5
1701
100
AcDbEntity
  8
MSL-90-P25-R-0
 48
2.0
100
AcDbLine
 10
1038.688365
 20
1393.909605
 30
0.0
 11
1038.188365
 21
1393.409605
 31
0.0
1001
ACAD
1000
RTLwPs
1070
   128
  0
LINE
  5
1702
100
AcDbEntity
  8
MSL-90-P25-R-0
 48
2.0
100
AcDbLine
 10
1138.188365
 20
1393.409605
 30
0.0
 11
1137.688365
 21
1393.909605
 31
0.0
1001
ACAD
1000
RTLwPs
1070
   128
  0
LINE
  5
1703
100
AcDbEntity
  8
MSL-90-P25-R-0
 48
2.0
100
AcDbLine
 10
1038.188365
 20
1393.409605
 30
0.0
 11
1038.188365
 21
1382.909605
 31
0.0
1001
ACAD
1000
RTLwPs
1070
   128
  0
LINE
  5
1704
100
AcDbEntity
  8
MSL-90-P25-R-0
 48
2.0
100
AcDbLine
 10
1075.688365
 20
1393.409605
 30
0.0
 11
1075.688365
 21
1393.909605
 31
0.0
1001
ACAD
1000
RTLwPs
1070
   128
  0
LINE
  5
1705
100
AcDbEntity
  8
MSL-90-P25-R-0
 48
2.0
100
AcDbLine
 10
1100.688365
 20
1393.909605
 30
0.0
 11
1100.688365
 21
1393.409605
 31
0.0
1001
ACAD
1000
RTLwPs
1070
   128
  0
LINE
  5
1706
100
AcDbEntity
  8
MSL-90-P25-R-0
 48
2.0
100
AcDbLine
 10
1138.125865
 20
1357.409605
 30
0.0
 11
1138.125865
 21
1382.909605
 31
0.0
1001
ACAD
1000
RTLwPs
1070
   128
  0
LINE
  5
1707
100
AcDbEntity
  8
MSL-90-P25-R-0
 48
2.0
100
AcDbLine
 10
1137.938365
 20
1382.909605
 30
0.0
 11
1138.125865
 21
1382.909605
 31
0.0
1001
ACAD
1000
RTLwPs
1070
   128
  0
LINE
  5
1708
100
AcDbEntity
  8
MSL-90-P25-R-0
 48
2.0
100
AcDbLine
 10
1133.188365
 20
1357.409605
 30
0.0
 11
1138.125865
 21
1357.409605
 31
0.0
1001
ACAD
1000
RTLwPs
1070
   128
  0
LINE
  5
1709
100
AcDbEntity
  8
MSL-90-P25-R-0
 48
2.0
100
AcDbLine
 10
1038.250865
 20
1357.409605
 30
0.0
 11
1038.250865
 21
1382.909605
 31
0.0
1001
ACAD
1000
RTLwPs
1070
   128
  0
LINE
  5
170A
100
AcDbEntity
  8
MSL-90-P25-R-0
 48
2.0
100
AcDbLine
 10
1038.250865
 20
1382.909605
 30
0.0
 11
1038.438365
 21
1382.909605
 31
0.0
1001
ACAD
1000
RTLwPs
1070
   128
  0
LINE
  5
170B
100
AcDbEntity
  8
MSL-90-P25-R-0
 48
2.0
100
AcDbLine
 10
1038.250865
 20
1357.409605
 30
0.0
 11
1043.188365
 21
1357.409605
 31
0.0
1001
ACAD
1000
RTLwPs
1070
   128
  0
LINE
  5
170C
100
AcDbEntity
  8
MSL-90-P25-R-0
 48
2.0
100
AcDbLine
 10
1137.938365
 20
1392.409605
 30
0.0
 11
1136.938365
 21
1393.409605
 31
0.0
1001
ACAD
1000
RTLwPs
1070
   128
  0
LINE
  5
170D
100
AcDbEntity
  8
MSL-90-P25-R-0
 48
2.0
100
AcDbLine
 10
1038.438365
 20
1376.409605
 30
0.0
 11
1038.438365
 21
1392.409605
 31
0.0
1001
ACAD
1000
RTLwPs
1070
   128
  0
LINE
  5
170E
100
AcDbEntity
  8
MSL-90-P25-R-0
 48
2.0
100
AcDbLine
 10
1136.938365
 20
1375.409605
 30
0.0
 11
1133.188365
 21
1375.409605
 31
0.0
1001
ACAD
1000
RTLwPs
1070
   128
  0
LINE
  5
170F
100
AcDbEntity
  8
MSL-90-P25-R-0
 48
2.0
100
AcDbLine
 10
1043.188365
 20
1375.409605
 30
0.0
 11
1039.438365
 21
1375.409605
 31
0.0
1001
ACAD
1000
RTLwPs
1070
   128
  0
LINE
  5
1710
100
AcDbEntity
  8
MSL-90-P25-R-0
 48
2.0
100
AcDbLine
 10
1136.938365
 20
1375.409605
 30
0.0
 11
1137.938365
 21
1376.409605
 31
0.0
1001
ACAD
1000
RTLwPs
1070
   128
  0
LINE
  5
1711
100
AcDbEntity
  8
MSL-90-P25-R-0
 48
2.0
100
AcDbLine
 10
1137.938365
 20
1392.409605
 30
0.0
 11
1137.938365
 21
1376.409605
 31
0.0
1001
ACAD
1000
RTLwPs
1070
   128
  0
LINE
  5
1712
100
AcDbEntity
  8
MSL-90-P25-R-0
 48
2.0
100
AcDbLine
 10
1038.438365
 20
1376.409605
 30
0.0
 11
1039.438365
 21
1375.409605
 31
0.0
1001
ACAD
1000
RTLwPs
1070
   128
  0
LINE
  5
1713
100
AcDbEntity
  8
MSL-90-P25-R-0
 48
2.0
100
AcDbLine
 10
1039.438365
 20
1393.409605
 30
0.0
 11
1038.438365
 21
1392.409605
 31
0.0
1001
ACAD
1000
RTLwPs
1070
   128
  0
LINE
  5
1714
100
AcDbEntity
  8
MSL-90-P25-R-0
 48
2.0
100
AcDbLine
 10
1039.438365
 20
1393.409605
 30
0.0
 11
1046.188365
 21
1393.409605
 31
0.0
1001
ACAD
1000
RTLwPs
1070
   128
  0
LINE
  5
1715
100
AcDbEntity
  8
MSL-90-P25-R-0
 48
2.0
100
AcDbLine
 10
1130.188365
 20
1393.409605
 30
0.0
 11
1136.938365
 21
1393.409605
 31
0.0
1001
ACAD
1000
RTLwPs
1070
   128
  0
ARC
  5
1716
100
AcDbEntity
  8
MSL-90-P25-R-0
 48
2.0
100
AcDbCircle
 10
1088.188365
 20
1380.409605
 30
0.0
 40
7.5
100
AcDbArc
 50
0.0
 51
238.21949
1001
ACAD
1000
RTLwPs
1070
   128
  0
ARC
  5
1717
100
AcDbEntity
  8
MSL-90-P25-R-0
 48
2.0
100
AcDbCircle
 10
1088.188365
 20
1380.409605
 30
0.0
 40
7.5
100
AcDbArc
 50
301.78051
 51
0.0
1001
ACAD
1000
RTLwPs
1070
   128
  0
ARC
  5
1718
100
AcDbEntity
  8
MSL-90-P25-R-0
 48
2.0
100
AcDbCircle
 10
1088.188365
 20
1360.609605
 30
0.0
 40
4.0
100
AcDbArc
 50
0.0
 51
9.068722
1001
ACAD
1000
RTLwPs
1070
   128
  0
ARC
  5
1719
100
AcDbEntity
  8
MSL-90-P25-R-0
 48
2.0
100
AcDbCircle
 10
1088.188365
 20
1360.609605
 30
0.0
 40
4.0
100
AcDbArc
 50
170.931278
 51
247.668355
1001
ACAD
1000
RTLwPs
1070
   128
  0
ARC
  5
171A
100
AcDbEntity
  8
MSL-90-P25-R-0
 48
2.0
100
AcDbCircle
 10
1088.188365
 20
1360.609605
 30
0.0
 40
4.0
100
AcDbArc
 50
292.331645
 51
0.0
1001
ACAD
1000
RTLwPs
1070
   128
  0
CIRCLE
  5
171B
100
AcDbEntity
  8
MSL-90-P25-R-0
 48
2.0
100
AcDbCircle
 10
1101.688365
 20
1328.409605
 30
0.0
 40
5.0
1001
ACAD
1000
RTLwPs
1070
   128
  0
CIRCLE
  5
171C
100
AcDbEntity
  8
MSL-90-P25-R-0
 48
2.0
100
AcDbCircle
 10
1101.688365
 20
1355.409605
 30
0.0
 40
5.0
1001
ACAD
1000
RTLwPs
1070
   128
  0
CIRCLE
  5
171D
100
AcDbEntity
  8
MSL-90-P25-R-0
 48
2.0
100
AcDbCircle
 10
1074.688365
 20
1355.409605
 30
0.0
 40
5.0
1001
ACAD
1000
RTLwPs
1070
   128
  0
CIRCLE
  5
171E
100
AcDbEntity
  8
MSL-90-P25-R-0
 48
2.0
100
AcDbCircle
 10
1074.688365
 20
1328.409605
 30
0.0
 40
5.0
1001
ACAD
1000
RTLwPs
1070
   128
  0
CIRCLE
  5
171F
100
AcDbEntity
  8
MSL-90-P25-R-0
 48
2.0
100
AcDbCircle
 10
1068.738365
 20
1316.409605
 30
0.0
 40
5.0
1001
ACAD
1000
RTLwPs
1070
   128
  0
CIRCLE
  5
1720
100
AcDbEntity
  8
MSL-90-P25-R-0
 48
2.0
100
AcDbCircle
 10
1054.750865
 20
1367.909605
 30
0.0
 40
5.0
1001
ACAD
1000
RTLwPs
1070
   128
  0
CIRCLE
  5
1721
100
AcDbEntity
  8
MSL-90-P25-R-0
 48
2.0
100
AcDbCircle
 10
1107.638365
 20
1316.409605
 30
0.0
 40
5.0
1001
ACAD
1000
RTLwPs
1070
   128
  0
CIRCLE
  5
1722
100
AcDbEntity
  8
MSL-90-P25-R-0
 48
2.0
100
AcDbCircle
 10
1121.625865
 20
1367.909605
 30
0.0
 40
5.0
1001
ACAD
1000
RTLwPs
1070
   128
  0
LINE
  5
1723
100
AcDbEntity
  8
MSL-90-P25-R-0
 48
2.0
100
AcDbLine
 10
1043.188365
 20
1309.409605
 30
0.0
 11
1043.188365
 21
1390.409605
 31
0.0
1001
ACAD
1000
RTLwPs
1070
   128
  0
LINE
  5
1724
100
AcDbEntity
  8
MSL-90-P25-R-0
 48
2.0
100
AcDbLine
 10
1133.188365
 20
1309.409605
 30
0.0
 11
1043.188365
 21
1309.409605
 31
0.0
1001
ACAD
1000
RTLwPs
1070
   128
  0
LINE
  5
1725
100
AcDbEntity
  8
MSL-90-P25-R-0
 48
2.0
100
AcDbLine
 10
1133.188365
 20
1390.409605
 30
0.0
 11
1133.188365
 21
1309.409605
 31
0.0
1001
ACAD
1000
RTLwPs
1070
   128
  0
LINE
  5
1726
100
AcDbEntity
  8
MSL-90-P25-R-0
 48
2.0
100
AcDbLine
 10
1046.188365
 20
1393.409605
 30
0.0
 11
1130.188365
 21
1393.409605
 31
0.0
1001
ACAD
1000
RTLwPs
1070
   128
  0
LINE
  5
1727
100
AcDbEntity
  8
MSL-90-P25-R-0
 48
2.0
100
AcDbLine
 10
1130.188365
 20
1393.409605
 30
0.0
 11
1133.188365
 21
1390.409605
 31
0.0
1001
ACAD
1000
RTLwPs
1070
   128
  0
LINE
  5
1728
100
AcDbEntity
  8
MSL-90-P25-R-0
 48
2.0
100
AcDbLine
 10
1043.188365
 20
1390.409605
 30
0.0
 11
1046.188365
 21
1393.409605
 31
0.0
1001
ACAD
1000
RTLwPs
1070
   128
  0
ARC
  5
1729
100
AcDbEntity
  8
MSL-90-P25-R-0
 48
2.0
100
AcDbCircle
 10
1088.188365
 20
1380.409605
 30
0.0
 40
7.232051
100
AcDbArc
 50
0.0
 51
236.894677
1001
ACAD
1000
RTLwPs
1070
   128
  0
ARC
  5
172A
100
AcDbEntity
  8
MSL-90-P25-R-0
 48
2.0
100
AcDbCircle
 10
1088.188365
 20
1380.409605
 30
0.0
 40
7.232051
100
AcDbArc
 50
303.105323
 51
0.0
1001
ACAD
1000
RTLwPs
1070
   128
  0
ARC
  5
172B
100
AcDbEntity
  8
MSL-90-P25-R-0
 48
2.0
100
AcDbCircle
 10
1088.188365
 20
1380.409605
 30
0.0
 40
7.5
100
AcDbArc
 50
0.0
 51
238.21949
1001
ACAD
1000
RTLwPs
1070
   128
  0
ARC
  5
172C
100
AcDbEntity
  8
MSL-90-P25-R-0
 48
2.0
100
AcDbCircle
 10
1088.188365
 20
1380.409605
 30
0.0
 40
7.5
100
AcDbArc
 50
301.78051
 51
0.0
1001
ACAD
1000
RTLwPs
1070
   128
  0
ARC
  5
172D
100
AcDbEntity
  8
MSL-90-P25-R-0
 48
2.0
100
AcDbCircle
 10
1090.188365
 20
1384.909605
 30
0.0
 40
2.0
100
AcDbArc
 50
0.0
 51
90.0
1001
ACAD
1000
RTLwPs
1070
   128
  0
LINE
  5
172E
100
AcDbEntity
  8
MSL-90-P25-R-0
 48
2.0
100
AcDbLine
 10
1089.688365
 20
1348.909605
 30
0.0
 11
1086.688365
 21
1348.909605
 31
0.0
1001
ACAD
1000
RTLwPs
1070
   128
  0
LINE
  5
172F
100
AcDbEntity
  8
MSL-90-P25-R-0
 48
2.0
100
AcDbLine
 10
1089.688365
 20
1348.909605
 30
0.0
 11
1089.688365
 21
1360.909605
 31
0.0
1001
ACAD
1000
RTLwPs
1070
   128
  0
LINE
  5
1730
100
AcDbEntity
  8
MSL-90-P25-R-0
 48
2.0
100
AcDbLine
 10
1086.688365
 20
1360.909605
 30
0.0
 11
1086.688365
 21
1348.909605
 31
0.0
1001
ACAD
1000
RTLwPs
1070
   128
  0
LINE
  5
1731
100
AcDbEntity
  8
MSL-90-P25-R-0
 48
2.0
100
AcDbLine
 10
1084.238365
 20
1360.909605
 30
0.0
 11
1092.138365
 21
1360.909605
 31
0.0
1001
ACAD
1000
RTLwPs
1070
   128
  0
LINE
  5
1732
100
AcDbEntity
  8
MSL-90-P25-R-0
 48
2.0
100
AcDbLine
 10
1084.238365
 20
1375.909605
 30
0.0
 11
1084.238365
 21
1360.909605
 31
0.0
1001
ACAD
1000
RTLwPs
1070
   128
  0
LINE
  5
1733
100
AcDbEntity
  8
MSL-90-P25-R-0
 48
2.0
100
AcDbLine
 10
1092.138365
 20
1360.909605
 30
0.0
 11
1092.138365
 21
1375.909605
 31
0.0
1001
ACAD
1000
RTLwPs
1070
   128
  0
LINE
  5
1734
100
AcDbEntity
  8
MSL-90-P25-R-0
 48
2.0
100
AcDbLine
 10
1084.188365
 20
1375.909605
 30
0.0
 11
1092.188365
 21
1375.909605
 31
0.0
1001
ACAD
1000
RTLwPs
1070
   128
  0
ARC
  5
1735
100
AcDbEntity
  8
MSL-90-P25-R-0
 48
2.0
100
AcDbCircle
 10
1086.188365
 20
1384.909605
 30
0.0
 40
2.0
100
AcDbArc
 50
90.0
 51
180.0
1001
ACAD
1000
RTLwPs
1070
   128
  0
LINE
  5
1736
100
AcDbEntity
  8
MSL-90-P25-R-0
 48
2.0
100
AcDbLine
 10
1084.188365
 20
1375.909605
 30
0.0
 11
1084.188365
 21
1384.909605
 31
0.0
1001
ACAD
1000
RTLwPs
1070
   128
  0
LINE
  5
1737
100
AcDbEntity
  8
MSL-90-P25-R-0
 48
2.0
100
AcDbLine
 10
1092.188365
 20
1384.909605
 30
0.0
 11
1092.188365
 21
1375.909605
 31
0.0
1001
ACAD
1000
RTLwPs
1070
   128
  0
LINE
  5
1738
100
AcDbEntity
  8
MSL-90-P25-R-0
 48
2.0
100
AcDbLine
 10
1086.188365
 20
1386.909605
 30
0.0
 11
1090.188365
 21
1386.909605
 31
0.0
1001
ACAD
1000
RTLwPs
1070
   128
  0
LINE
  5
1739
100
AcDbEntity
  8
MSL-90-P25-R-0
 48
2.0
100
AcDbLine
 10
1063.938365
 20
1389.770821
 30
0.0
 11
1068.188365
 21
1392.22456
 31
0.0
1001
ACAD
1000
RTLwPs
1070
   128
  0
ARC
  5
173A
100
AcDbEntity
  8
MSL-90-P25-R-0
 48
2.0
100
AcDbCircle
 10
1068.188365
 20
1382.409605
 30
0.0
 40
8.5
100
AcDbArc
 50
60.0
 51
120.0
1001
ACAD
1000
RTLwPs
1070
   128
  0
LINE
  5
173B
100
AcDbEntity
  8
MSL-90-P25-R-0
 48
2.0
100
AcDbLine
 10
1059.688365
 20
1387.317083
 30
0.0
 11
1063.938365
 21
1389.770821
 31
0.0
1001
ACAD
1000
RTLwPs
1070
   128
  0
LINE
  5
173C
100
AcDbEntity
  8
MSL-90-P25-R-0
 48
2.0
100
AcDbLine
 10
1059.688365
 20
1382.409605
 30
0.0
 11
1059.688365
 21
1387.317083
 31
0.0
1001
ACAD
1000
RTLwPs
1070
   128
  0
LINE
  5
173D
100
AcDbEntity
  8
MSL-90-P25-R-0
 48
2.0
100
AcDbLine
 10
1068.188365
 20
1392.22456
 30
0.0
 11
1072.438365
 21
1389.770821
 31
0.0
1001
ACAD
1000
RTLwPs
1070
   128
  0
ARC
  5
173E
100
AcDbEntity
  8
MSL-90-P25-R-0
 48
2.0
100
AcDbCircle
 10
1068.188365
 20
1382.409605
 30
0.0
 40
8.5
100
AcDbArc
 50
0.0
 51
60.0
1001
ACAD
1000
RTLwPs
1070
   128
  0
LINE
  5
173F
100
AcDbEntity
  8
MSL-90-P25-R-0
 48
2.0
100
AcDbLine
 10
1059.688365
 20
1377.502128
 30
0.0
 11
1059.688365
 21
1382.409605
 31
0.0
1001
ACAD
1000
RTLwPs
1070
   128
  0
LINE
  5
1740
100
AcDbEntity
  8
MSL-90-P25-R-0
 48
2.0
100
AcDbLine
 10
1063.938365
 20
1375.048389
 30
0.0
 11
1059.688365
 21
1377.502128
 31
0.0
1001
ACAD
1000
RTLwPs
1070
   128
  0
LINE
  5
1741
100
AcDbEntity
  8
MSL-90-P25-R-0
 48
2.0
100
AcDbLine
 10
1076.688365
 20
1382.409605
 30
0.0
 11
1076.688365
 21
1377.502128
 31
0.0
1001
ACAD
1000
RTLwPs
1070
   128
  0
LINE
  5
1742
100
AcDbEntity
  8
MSL-90-P25-R-0
 48
2.0
100
AcDbLine
 10
1072.438365
 20
1389.770821
 30
0.0
 11
1076.688365
 21
1387.317083
 31
0.0
1001
ACAD
1000
RTLwPs
1070
   128
  0
LINE
  5
1743
100
AcDbEntity
  8
MSL-90-P25-R-0
 48
2.0
100
AcDbLine
 10
1076.688365
 20
1387.317083
 30
0.0
 11
1076.688365
 21
1382.409605
 31
0.0
1001
ACAD
1000
RTLwPs
1070
   128
  0
LINE
  5
1744
100
AcDbEntity
  8
MSL-90-P25-R-0
 48
2.0
100
AcDbLine
 10
1072.438365
 20
1375.048389
 30
0.0
 11
1068.188365
 21
1372.594651
 31
0.0
1001
ACAD
1000
RTLwPs
1070
   128
  0
LINE
  5
1745
100
AcDbEntity
  8
MSL-90-P25-R-0
 48
2.0
100
AcDbLine
 10
1068.188365
 20
1372.594651
 30
0.0
 11
1063.938365
 21
1375.048389
 31
0.0
1001
ACAD
1000
RTLwPs
1070
   128
  0
LINE
  5
1746
100
AcDbEntity
  8
MSL-90-P25-R-0
 48
2.0
100
AcDbLine
 10
1076.688365
 20
1377.502128
 30
0.0
 11
1072.438365
 21
1375.048389
 31
0.0
1001
ACAD
1000
RTLwPs
1070
   128
  0
ARC
  5
1747
100
AcDbEntity
  8
MSL-90-P25-R-0
 48
2.0
100
AcDbCircle
 10
1068.188365
 20
1382.409605
 30
0.0
 40
8.5
100
AcDbArc
 50
180.0
 51
240.0
1001
ACAD
1000
RTLwPs
1070
   128
  0
ARC
  5
1748
100
AcDbEntity
  8
MSL-90-P25-R-0
 48
2.0
100
AcDbCircle
 10
1068.188365
 20
1382.409605
 30
0.0
 40
8.5
100
AcDbArc
 50
120.0
 51
180.0
1001
ACAD
1000
RTLwPs
1070
   128
  0
ARC
  5
1749
100
AcDbEntity
  8
MSL-90-P25-R-0
 48
2.0
100
AcDbCircle
 10
1068.188365
 20
1382.409605
 30
0.0
 40
8.5
100
AcDbArc
 50
240.0
 51
300.0
1001
ACAD
1000
RTLwPs
1070
   128
  0
ARC
  5
174A
100
AcDbEntity
  8
MSL-90-P25-R-0
 48
2.0
100
AcDbCircle
 10
1068.188365
 20
1382.409605
 30
0.0
 40
8.5
100
AcDbArc
 50
300.0
 51
360.0
1001
ACAD
1000
RTLwPs
1070
   128
  0
CIRCLE
  5
174B
100
AcDbEntity
  8
MSL-90-P25-R-0
 48
2.0
100
AcDbCircle
 10
1068.188365
 20
1382.409605
 30
0.0
 40
7.0
1001
ACAD
1000
RTLwPs
1070
   128
  0
CIRCLE
  5
174C
100
AcDbEntity
  8
MSL-90-P25-R-0
 48
2.0
100
AcDbCircle
 10
1068.188365
 20
1382.409605
 30
0.0
 40
6.4
1001
ACAD
1000
RTLwPs
1070
   128
  0
CIRCLE
  5
174D
100
AcDbEntity
  8
MSL-90-P25-R-0
 48
2.0
100
AcDbCircle
 10
1068.188365
 20
1382.409605
 30
0.0
 40
5.8
1001
ACAD
1000
RTLwPs
1070
   128
  0
ARC
  5
174E
100
AcDbEntity
  8
MSL-90-P25-R-5
 48
2.0
100
AcDbCircle
 10
1068.188365
 20
1382.409605
 30
0.0
 40
6.08
100
AcDbArc
 50
255.0
 51
195.0
1001
ACAD
1000
RTLwPs
1070
   128
  0
LINE
  5
174F
100
AcDbEntity
  8
MSL-90-P25-R-0
 48
2.0
100
AcDbLine
 10
1068.738365
 20
1318.719006
 30
0.0
 11
1070.738365
 21
1317.564306
 31
0.0
1001
ACAD
1000
RTLwPs
1070
   128
  0
LINE
  5
1750
100
AcDbEntity
  8
MSL-90-P25-R-0
 48
2.0
100
AcDbLine
 10
1066.738365
 20
1315.254905
 30
0.0
 11
1066.738365
 21
1317.564306
 31
0.0
1001
ACAD
1000
RTLwPs
1070
   128
  0
LINE
  5
1751
100
AcDbEntity
  8
MSL-90-P25-R-0
 48
2.0
100
AcDbLine
 10
1070.738365
 20
1317.564306
 30
0.0
 11
1070.738365
 21
1315.254905
 31
0.0
1001
ACAD
1000
RTLwPs
1070
   128
  0
LINE
  5
1752
100
AcDbEntity
  8
MSL-90-P25-R-0
 48
2.0
100
AcDbLine
 10
1070.738365
 20
1315.254905
 30
0.0
 11
1068.738365
 21
1314.100204
 31
0.0
1001
ACAD
1000
RTLwPs
1070
   128
  0
LINE
  5
1753
100
AcDbEntity
  8
MSL-90-P25-R-0
 48
2.0
100
AcDbLine
 10
1068.738365
 20
1314.100204
 30
0.0
 11
1066.738365
 21
1315.254905
 31
0.0
1001
ACAD
1000
RTLwPs
1070
   128
  0
CIRCLE
  5
1754
100
AcDbEntity
  8
MSL-90-P25-R-0
 48
2.0
100
AcDbCircle
 10
1068.738365
 20
1316.409605
 30
0.0
 40
4.25
1001
ACAD
1000
RTLwPs
1070
   128
  0
LINE
  5
1755
100
AcDbEntity
  8
MSL-90-P25-R-0
 48
2.0
100
AcDbLine
 10
1066.738365
 20
1317.564306
 30
0.0
 11
1068.738365
 21
1318.719006
 31
0.0
1001
ACAD
1000
RTLwPs
1070
   128
  0
LINE
  5
1756
100
AcDbEntity
  8
MSL-90-P25-R-0
 48
2.0
100
AcDbLine
 10
1105.638365
 20
1317.564306
 30
0.0
 11
1107.638365
 21
1318.719006
 31
0.0
1001
ACAD
1000
RTLwPs
1070
   128
  0
CIRCLE
  5
1757
100
AcDbEntity
  8
MSL-90-P25-R-0
 48
2.0
100
AcDbCircle
 10
1107.638365
 20
1316.409605
 30
0.0
 40
4.25
1001
ACAD
1000
RTLwPs
1070
   128
  0
LINE
  5
1758
100
AcDbEntity
  8
MSL-90-P25-R-0
 48
2.0
100
AcDbLine
 10
1109.638365
 20
1317.564306
 30
0.0
 11
1109.638365
 21
1315.254905
 31
0.0
1001
ACAD
1000
RTLwPs
1070
   128
  0
LINE
  5
1759
100
AcDbEntity
  8
MSL-90-P25-R-0
 48
2.0
100
AcDbLine
 10
1107.638365
 20
1318.719006
 30
0.0
 11
1109.638365
 21
1317.564306
 31
0.0
1001
ACAD
1000
RTLwPs
1070
   128
  0
LINE
  5
175A
100
AcDbEntity
  8
MSL-90-P25-R-0
 48
2.0
100
AcDbLine
 10
1105.638365
 20
1315.254905
 30
0.0
 11
1105.638365
 21
1317.564306
 31
0.0
1001
ACAD
1000
RTLwPs
1070
   128
  0
LINE
  5
175B
100
AcDbEntity
  8
MSL-90-P25-R-0
 48
2.0
100
AcDbLine
 10
1107.638365
 20
1314.100204
 30
0.0
 11
1105.638365
 21
1315.254905
 31
0.0
1001
ACAD
1000
RTLwPs
1070
   128
  0
LINE
  5
175C
100
AcDbEntity
  8
MSL-90-P25-R-0
 48
2.0
100
AcDbLine
 10
1109.638365
 20
1315.254905
 30
0.0
 11
1107.638365
 21
1314.100204
 31
0.0
1001
ACAD
1000
RTLwPs
1070
   128
  0
CIRCLE
  5
175D
100
AcDbEntity
  8
MSL-90-P25-R-0
 48
2.0
100
AcDbCircle
 10
1054.750865
 20
1367.909605
 30
0.0
 40
4.25
1001
ACAD
1000
RTLwPs
1070
   128
  0
LINE
  5
175E
100
AcDbEntity
  8
MSL-90-P25-R-0
 48
2.0
100
AcDbLine
 10
1054.750865
 20
1365.600204
 30
0.0
 11
1052.750865
 21
1366.754905
 31
0.0
1001
ACAD
1000
RTLwPs
1070
   128
  0
LINE
  5
175F
100
AcDbEntity
  8
MSL-90-P25-R-0
 48
2.0
100
AcDbLine
 10
1056.750865
 20
1366.754905
 30
0.0
 11
1054.750865
 21
1365.600204
 31
0.0
1001
ACAD
1000
RTLwPs
1070
   128
  0
LINE
  5
1760
100
AcDbEntity
  8
MSL-90-P25-R-0
 48
2.0
100
AcDbLine
 10
1052.750865
 20
1369.064306
 30
0.0
 11
1054.750865
 21
1370.219006
 31
0.0
1001
ACAD
1000
RTLwPs
1070
   128
  0
LINE
  5
1761
100
AcDbEntity
  8
MSL-90-P25-R-0
 48
2.0
100
AcDbLine
 10
1054.750865
 20
1370.219006
 30
0.0
 11
1056.750865
 21
1369.064306
 31
0.0
1001
ACAD
1000
RTLwPs
1070
   128
  0
LINE
  5
1762
100
AcDbEntity
  8
MSL-90-P25-R-0
 48
2.0
100
AcDbLine
 10
1056.750865
 20
1369.064306
 30
0.0
 11
1056.750865
 21
1366.754905
 31
0.0
1001
ACAD
1000
RTLwPs
1070
   128
  0
LINE
  5
1763
100
AcDbEntity
  8
MSL-90-P25-R-0
 48
2.0
100
AcDbLine
 10
1052.750865
 20
1366.754905
 30
0.0
 11
1052.750865
 21
1369.064306
 31
0.0
1001
ACAD
1000
RTLwPs
1070
   128
  0
LINE
  5
1764
100
AcDbEntity
  8
MSL-90-P25-R-0
 48
2.0
100
AcDbLine
 10
1119.625865
 20
1369.064306
 30
0.0
 11
1121.625865
 21
1370.219006
 31
0.0
1001
ACAD
1000
RTLwPs
1070
   128
  0
CIRCLE
  5
1765
100
AcDbEntity
  8
MSL-90-P25-R-0
 48
2.0
100
AcDbCircle
 10
1121.625865
 20
1367.909605
 30
0.0
 40
4.25
1001
ACAD
1000
RTLwPs
1070
   128
  0
LINE
  5
1766
100
AcDbEntity
  8
MSL-90-P25-R-0
 48
2.0
100
AcDbLine
 10
1123.625865
 20
1369.064306
 30
0.0
 11
1123.625865
 21
1366.754905
 31
0.0
1001
ACAD
1000
RTLwPs
1070
   128
  0
LINE
  5
1767
100
AcDbEntity
  8
MSL-90-P25-R-0
 48
2.0
100
AcDbLine
 10
1121.625865
 20
1370.219006
 30
0.0
 11
1123.625865
 21
1369.064306
 31
0.0
1001
ACAD
1000
RTLwPs
1070
   128
  0
LINE
  5
1768
100
AcDbEntity
  8
MSL-90-P25-R-0
 48
2.0
100
AcDbLine
 10
1119.625865
 20
1366.754905
 30
0.0
 11
1119.625865
 21
1369.064306
 31
0.0
1001
ACAD
1000
RTLwPs
1070
   128
  0
LINE
  5
1769
100
AcDbEntity
  8
MSL-90-P25-R-0
 48
2.0
100
AcDbLine
 10
1121.625865
 20
1365.600204
 30
0.0
 11
1119.625865
 21
1366.754905
 31
0.0
1001
ACAD
1000
RTLwPs
1070
   128
  0
LINE
  5
176A
100
AcDbEntity
  8
MSL-90-P25-R-0
 48
2.0
100
AcDbLine
 10
1123.625865
 20
1366.754905
 30
0.0
 11
1121.625865
 21
1365.600204
 31
0.0
1001
ACAD
1000
RTLwPs
1070
   128
  0
LINE
  5
176B
100
AcDbEntity
  8
MSL-90-P25-R-0
 48
2.0
100
AcDbLine
 10
1072.688365
 20
1356.564306
 30
0.0
 11
1074.688365
 21
1357.719006
 31
0.0
1001
ACAD
1000
RTLwPs
1070
   128
  0
CIRCLE
  5
176C
100
AcDbEntity
  8
MSL-90-P25-R-0
 48
2.0
100
AcDbCircle
 10
1074.688365
 20
1355.409605
 30
0.0
 40
4.25
1001
ACAD
1000
RTLwPs
1070
   128
  0
LINE
  5
176D
100
AcDbEntity
  8
MSL-90-P25-R-0
 48
2.0
100
AcDbLine
 10
1076.688365
 20
1356.564306
 30
0.0
 11
1076.688365
 21
1354.254905
 31
0.0
1001
ACAD
1000
RTLwPs
1070
   128
  0
LINE
  5
176E
100
AcDbEntity
  8
MSL-90-P25-R-0
 48
2.0
100
AcDbLine
 10
1074.688365
 20
1357.719006
 30
0.0
 11
1076.688365
 21
1356.564306
 31
0.0
1001
ACAD
1000
RTLwPs
1070
   128
  0
LINE
  5
176F
100
AcDbEntity
  8
MSL-90-P25-R-0
 48
2.0
100
AcDbLine
 10
1072.688365
 20
1354.254905
 30
0.0
 11
1072.688365
 21
1356.564306
 31
0.0
1001
ACAD
1000
RTLwPs
1070
   128
  0
LINE
  5
1770
100
AcDbEntity
  8
MSL-90-P25-R-0
 48
2.0
100
AcDbLine
 10
1076.688365
 20
1354.254905
 30
0.0
 11
1074.688365
 21
1353.100204
 31
0.0
1001
ACAD
1000
RTLwPs
1070
   128
  0
LINE
  5
1771
100
AcDbEntity
  8
MSL-90-P25-R-0
 48
2.0
100
AcDbLine
 10
1074.688365
 20
1353.100204
 30
0.0
 11
1072.688365
 21
1354.254905
 31
0.0
1001
ACAD
1000
RTLwPs
1070
   128
  0
LINE
  5
1772
100
AcDbEntity
  8
MSL-90-P25-R-0
 48
2.0
100
AcDbLine
 10
1103.688365
 20
1354.254905
 30
0.0
 11
1101.688365
 21
1353.100204
 31
0.0
1001
ACAD
1000
RTLwPs
1070
   128
  0
LINE
  5
1773
100
AcDbEntity
  8
MSL-90-P25-R-0
 48
2.0
100
AcDbLine
 10
1101.688365
 20
1353.100204
 30
0.0
 11
1099.688365
 21
1354.254905
 31
0.0
1001
ACAD
1000
RTLwPs
1070
   128
  0
CIRCLE
  5
1774
100
AcDbEntity
  8
MSL-90-P25-R-0
 48
2.0
100
AcDbCircle
 10
1101.688365
 20
1355.409605
 30
0.0
 40
4.25
1001
ACAD
1000
RTLwPs
1070
   128
  0
LINE
  5
1775
100
AcDbEntity
  8
MSL-90-P25-R-0
 48
2.0
100
AcDbLine
 10
1099.688365
 20
1356.564306
 30
0.0
 11
1101.688365
 21
1357.719006
 31
0.0
1001
ACAD
1000
RTLwPs
1070
   128
  0
LINE
  5
1776
100
AcDbEntity
  8
MSL-90-P25-R-0
 48
2.0
100
AcDbLine
 10
1101.688365
 20
1357.719006
 30
0.0
 11
1103.688365
 21
1356.564306
 31
0.0
1001
ACAD
1000
RTLwPs
1070
   128
  0
LINE
  5
1777
100
AcDbEntity
  8
MSL-90-P25-R-0
 48
2.0
100
AcDbLine
 10
1103.688365
 20
1356.564306
 30
0.0
 11
1103.688365
 21
1354.254905
 31
0.0
1001
ACAD
1000
RTLwPs
1070
   128
  0
LINE
  5
1778
100
AcDbEntity
  8
MSL-90-P25-R-0
 48
2.0
100
AcDbLine
 10
1099.688365
 20
1354.254905
 30
0.0
 11
1099.688365
 21
1356.564306
 31
0.0
1001
ACAD
1000
RTLwPs
1070
   128
  0
CIRCLE
  5
1779
100
AcDbEntity
  8
MSL-90-P25-R-0
 48
2.0
100
AcDbCircle
 10
1101.688365
 20
1328.409605
 30
0.0
 40
4.25
1001
ACAD
1000
RTLwPs
1070
   128
  0
LINE
  5
177A
100
AcDbEntity
  8
MSL-90-P25-R-0
 48
2.0
100
AcDbLine
 10
1099.688365
 20
1329.564306
 30
0.0
 11
1101.688365
 21
1330.719006
 31
0.0
1001
ACAD
1000
RTLwPs
1070
   128
  0
LINE
  5
177B
100
AcDbEntity
  8
MSL-90-P25-R-0
 48
2.0
100
AcDbLine
 10
1101.688365
 20
1330.719006
 30
0.0
 11
1103.688365
 21
1329.564306
 31
0.0
1001
ACAD
1000
RTLwPs
1070
   128
  0
LINE
  5
177C
100
AcDbEntity
  8
MSL-90-P25-R-0
 48
2.0
100
AcDbLine
 10
1099.688365
 20
1327.254905
 30
0.0
 11
1099.688365
 21
1329.564306
 31
0.0
1001
ACAD
1000
RTLwPs
1070
   128
  0
LINE
  5
177D
100
AcDbEntity
  8
MSL-90-P25-R-0
 48
2.0
100
AcDbLine
 10
1103.688365
 20
1329.564306
 30
0.0
 11
1103.688365
 21
1327.254905
 31
0.0
1001
ACAD
1000
RTLwPs
1070
   128
  0
LINE
  5
177E
100
AcDbEntity
  8
MSL-90-P25-R-0
 48
2.0
100
AcDbLine
 10
1103.688365
 20
1327.254905
 30
0.0
 11
1101.688365
 21
1326.100204
 31
0.0
1001
ACAD
1000
RTLwPs
1070
   128
  0
LINE
  5
177F
100
AcDbEntity
  8
MSL-90-P25-R-0
 48
2.0
100
AcDbLine
 10
1101.688365
 20
1326.100204
 30
0.0
 11
1099.688365
 21
1327.254905
 31
0.0
1001
ACAD
1000
RTLwPs
1070
   128
  0
LINE
  5
1780
100
AcDbEntity
  8
MSL-90-P25-R-0
 48
2.0
100
AcDbLine
 10
1074.688365
 20
1326.100204
 30
0.0
 11
1072.688365
 21
1327.254905
 31
0.0
1001
ACAD
1000
RTLwPs
1070
   128
  0
LINE
  5
1781
100
AcDbEntity
  8
MSL-90-P25-R-0
 48
2.0
100
AcDbLine
 10
1072.688365
 20
1329.564306
 30
0.0
 11
1074.688365
 21
1330.719006
 31
0.0
1001
ACAD
1000
RTLwPs
1070
   128
  0
CIRCLE
  5
1782
100
AcDbEntity
  8
MSL-90-P25-R-0
 48
2.0
100
AcDbCircle
 10
1074.688365
 20
1328.409605
 30
0.0
 40
4.25
1001
ACAD
1000
RTLwPs
1070
   128
  0
LINE
  5
1783
100
AcDbEntity
  8
MSL-90-P25-R-0
 48
2.0
100
AcDbLine
 10
1074.688365
 20
1330.719006
 30
0.0
 11
1076.688365
 21
1329.564306
 31
0.0
1001
ACAD
1000
RTLwPs
1070
   128
  0
LINE
  5
1784
100
AcDbEntity
  8
MSL-90-P25-R-0
 48
2.0
100
AcDbLine
 10
1076.688365
 20
1329.564306
 30
0.0
 11
1076.688365
 21
1327.254905
 31
0.0
1001
ACAD
1000
RTLwPs
1070
   128
  0
LINE
  5
1785
100
AcDbEntity
  8
MSL-90-P25-R-0
 48
2.0
100
AcDbLine
 10
1072.688365
 20
1327.254905
 30
0.0
 11
1072.688365
 21
1329.564306
 31
0.0
1001
ACAD
1000
RTLwPs
1070
   128
  0
LINE
  5
1786
100
AcDbEntity
  8
MSL-90-P25-R-0
 48
2.0
100
AcDbLine
 10
1076.688365
 20
1327.254905
 30
0.0
 11
1074.688365
 21
1326.100204
 31
0.0
1001
ACAD
1000
RTLwPs
1070
   128
  0
LINE
  5
30DD
100
AcDbEntity
  8
MSL-90-P25-R-7A
 48
2.0
100
AcDbLine
 10
732.716192
 20
1397.236724
 30
0.0
 11
732.716192
 21
1380.909605
 31
0.0
  0
LINE
  5
3808
100
AcDbEntity
  8
MSL-90-P25-R-7A
 48
2.0
100
AcDbLine
 10
1054.688101
 20
1326.08902
 30
0.0
 11
1054.688101
 21
1303.842769
 31
0.0
  0
LINE
  5
3820
100
AcDbEntity
  8
MSL-90-P25-R-7A
 48
2.0
100
AcDbLine
 10
1121.688101
 20
1326.08902
 30
0.0
 11
1121.688101
 21
1303.842769
 31
0.0
  0
LINE
  5
3A47
100
AcDbEntity
  8
MSL-90-P25-R-3A
 48
2.0
100
AcDbLine
 10
1050.638318
 20
1309.109605
 30
0.0
 11
1050.638318
 21
1310.509606
 31
0.0
1001
ACAD
1000
RTLwPs
1070
   128
  0
LINE
  5
3A48
100
AcDbEntity
  8
MSL-90-P25-R-3A
 48
2.0
100
AcDbLine
 10
1058.738318
 20
1310.509606
 30
0.0
 11
1058.738318
 21
1309.109605
 31
0.0
1001
ACAD
1000
RTLwPs
1070
   128
  0
LINE
  5
3A55
100
AcDbEntity
  8
MSL-90-P25-R-3A
 48
2.0
100
AcDbLine
 10
1050.038318
 20
1311.109606
 30
0.0
 11
1046.138318
 21
1311.109606
 31
0.0
1001
ACAD
1000
RTLwPs
1070
   128
  0
LINE
  5
3A56
100
AcDbEntity
  8
MSL-90-P25-R-3A
 48
2.0
100
AcDbLine
 10
1045.996897
 20
1313.668185
 30
0.0
 11
1050.175274
 21
1317.846562
 31
0.0
1001
ACAD
1000
RTLwPs
1070
   128
  0
LINE
  5
3A57
100
AcDbEntity
  8
MSL-90-P25-R-3A
 48
2.0
100
AcDbLine
 10
1045.938318
 20
1311.309606
 30
0.0
 11
1045.938318
 21
1313.526764
 31
0.0
1001
ACAD
1000
RTLwPs
1070
   128
  0
ARC
  5
3A58
100
AcDbEntity
  8
MSL-90-P25-R-3A
 48
2.0
100
AcDbCircle
 10
1046.138318
 20
1311.309606
 30
0.0
 40
0.2
100
AcDbArc
 50
180.0
 51
270.0
1001
ACAD
1000
RTLwPs
1070
   128
  0
ARC
  5
3A59
100
AcDbEntity
  8
MSL-90-P25-R-3A
 48
2.0
100
AcDbCircle
 10
1046.138318
 20
1313.526764
 30
0.0
 40
0.2
100
AcDbArc
 50
135.0
 51
180.0
1001
ACAD
1000
RTLwPs
1070
   128
  0
LINE
  5
3A5F
100
AcDbEntity
  8
MSL-90-P25-R-3A
 48
2.0
100
AcDbLine
 10
1059.201363
 20
1317.846562
 30
0.0
 11
1063.37974
 21
1313.668185
 31
0.0
1001
ACAD
1000
RTLwPs
1070
   128
  0
LINE
  5
3A60
100
AcDbEntity
  8
MSL-90-P25-R-3A
 48
2.0
100
AcDbLine
 10
1063.238318
 20
1311.109606
 30
0.0
 11
1059.338318
 21
1311.109606
 31
0.0
1001
ACAD
1000
RTLwPs
1070
   128
  0
LINE
  5
3A62
100
AcDbEntity
  8
MSL-90-P25-R-3A
 48
2.0
100
AcDbLine
 10
1050.316695
 20
1317.90514
 30
0.0
 11
1053.734728
 21
1317.90514
 31
0.0
1001
ACAD
1000
RTLwPs
1070
   128
  0
ARC
  5
3A63
100
AcDbEntity
  8
MSL-90-P25-R-3A
 48
2.0
100
AcDbCircle
 10
1050.038318
 20
1310.509606
 30
0.0
 40
0.6
100
AcDbArc
 50
0.0
 51
90.0
1001
ACAD
1000
RTLwPs
1070
   128
  0
ARC
  5
3A64
100
AcDbEntity
  8
MSL-90-P25-R-3A
 48
2.0
100
AcDbCircle
 10
1050.316695
 20
1317.70514
 30
0.0
 40
0.2
100
AcDbArc
 50
90.0
 51
135.0
1001
ACAD
1000
RTLwPs
1070
   128
  0
ARC
  5
3A65
100
AcDbEntity
  8
MSL-90-P25-R-3A
 48
2.0
100
AcDbCircle
 10
1059.338318
 20
1310.509606
 30
0.0
 40
0.6
100
AcDbArc
 50
90.0
 51
180.0
1001
ACAD
1000
RTLwPs
1070
   128
  0
LINE
  5
3A66
100
AcDbEntity
  8
MSL-90-P25-R-3A
 48
2.0
100
AcDbLine
 10
1055.641908
 20
1317.90514
 30
0.0
 11
1059.059941
 21
1317.90514
 31
0.0
1001
ACAD
1000
RTLwPs
1070
   128
  0
LINE
  5
3A67
100
AcDbEntity
  8
MSL-90-P25-R-3A
 48
2.0
100
AcDbLine
 10
1054.788318
 20
1318.36702
 30
0.0
 11
1055.541908
 21
1317.931935
 31
0.0
1001
ACAD
1000
RTLwPs
1070
   128
  0
ARC
  5
3A68
100
AcDbEntity
  8
MSL-90-P25-R-3A
 48
2.0
100
AcDbCircle
 10
1053.734728
 20
1318.10514
 30
0.0
 40
0.2
100
AcDbArc
 50
270.0
 51
299.999988
1001
ACAD
1000
RTLwPs
1070
   128
  0
LINE
  5
3A69
100
AcDbEntity
  8
MSL-90-P25-R-3A
 48
2.0
100
AcDbLine
 10
1053.788318
 20
1317.90514
 30
0.0
 11
1053.834728
 21
1317.931935
 31
0.0
1001
ACAD
1000
RTLwPs
1070
   128
  0
LINE
  5
3A6A
100
AcDbEntity
  8
MSL-90-P25-R-3A
 48
2.0
100
AcDbLine
 10
1053.834728
 20
1317.931935
 30
0.0
 11
1054.588318
 21
1318.36702
 31
0.0
1001
ACAD
1000
RTLwPs
1070
   128
  0
LINE
  5
3A6B
100
AcDbEntity
  8
MSL-90-P25-R-3A
 48
2.0
100
AcDbLine
 10
1053.788318
 20
1317.90514
 30
0.0
 11
1053.734728
 21
1317.90514
 31
0.0
1001
ACAD
1000
RTLwPs
1070
   128
  0
ARC
  5
3A6C
100
AcDbEntity
  8
MSL-90-P25-R-3A
 48
2.0
100
AcDbCircle
 10
1054.688318
 20
1318.193815
 30
0.0
 40
0.2
100
AcDbArc
 50
60.000012
 51
119.999988
1001
ACAD
1000
RTLwPs
1070
   128
  0
LINE
  5
3A6D
100
AcDbEntity
  8
MSL-90-P25-R-3A
 48
2.0
100
AcDbLine
 10
1055.541908
 20
1317.931935
 30
0.0
 11
1055.588318
 21
1317.90514
 31
0.0
1001
ACAD
1000
RTLwPs
1070
   128
  0
LINE
  5
3A6E
100
AcDbEntity
  8
MSL-90-P25-R-3A
 48
2.0
100
AcDbLine
 10
1055.641908
 20
1317.90514
 30
0.0
 11
1055.588318
 21
1317.90514
 31
0.0
1001
ACAD
1000
RTLwPs
1070
   128
  0
ARC
  5
3A6F
100
AcDbEntity
  8
MSL-90-P25-R-3A
 48
2.0
100
AcDbCircle
 10
1055.641908
 20
1318.10514
 30
0.0
 40
0.2
100
AcDbArc
 50
240.000012
 51
270.0
1001
ACAD
1000
RTLwPs
1070
   128
  0
ARC
  5
3A70
100
AcDbEntity
  8
MSL-90-P25-R-3A
 48
2.0
100
AcDbCircle
 10
1059.059941
 20
1317.70514
 30
0.0
 40
0.2
100
AcDbArc
 50
45.0
 51
90.0
1001
ACAD
1000
RTLwPs
1070
   128
  0
ARC
  5
3A75
100
AcDbEntity
  8
MSL-90-P25-R-3A
 48
2.0
100
AcDbCircle
 10
1063.238318
 20
1311.309606
 30
0.0
 40
0.2
100
AcDbArc
 50
270.0
 51
0.0
1001
ACAD
1000
RTLwPs
1070
   128
  0
ARC
  5
3A76
100
AcDbEntity
  8
MSL-90-P25-R-3A
 48
2.0
100
AcDbCircle
 10
1063.238318
 20
1313.526764
 30
0.0
 40
0.2
100
AcDbArc
 50
0.0
 51
45.0
1001
ACAD
1000
RTLwPs
1070
   128
  0
LINE
  5
3A77
100
AcDbEntity
  8
MSL-90-P25-R-3A
 48
2.0
100
AcDbLine
 10
1063.438318
 20
1313.526764
 30
0.0
 11
1063.438318
 21
1311.309606
 31
0.0
1001
ACAD
1000
RTLwPs
1070
   128
  0
LINE
  5
3A9D
100
AcDbEntity
  8
MSL-90-P25-R-3A
 48
2.0
100
AcDbLine
 10
1125.738318
 20
1309.109605
 30
0.0
 11
1125.738318
 21
1310.509606
 31
0.0
1001
ACAD
1000
RTLwPs
1070
   128
  0
LINE
  5
3A9E
100
AcDbEntity
  8
MSL-90-P25-R-3A
 48
2.0
100
AcDbLine
 10
1117.638318
 20
1310.509606
 30
0.0
 11
1117.638318
 21
1309.109605
 31
0.0
1001
ACAD
1000
RTLwPs
1070
   128
  0
LINE
  5
3AA9
100
AcDbEntity
  8
MSL-90-P25-R-3A
 48
2.0
100
AcDbLine
 10
1126.338318
 20
1311.109606
 30
0.0
 11
1130.238318
 21
1311.109606
 31
0.0
1001
ACAD
1000
RTLwPs
1070
   128
  0
LINE
  5
3AAA
100
AcDbEntity
  8
MSL-90-P25-R-3A
 48
2.0
100
AcDbLine
 10
1130.37974
 20
1313.668185
 30
0.0
 11
1126.201363
 21
1317.846562
 31
0.0
1001
ACAD
1000
RTLwPs
1070
   128
  0
LINE
  5
3AB3
100
AcDbEntity
  8
MSL-90-P25-R-3A
 48
2.0
100
AcDbLine
 10
1117.175274
 20
1317.846562
 30
0.0
 11
1112.996897
 21
1313.668185
 31
0.0
1001
ACAD
1000
RTLwPs
1070
   128
  0
LINE
  5
3AB4
100
AcDbEntity
  8
MSL-90-P25-R-3A
 48
2.0
100
AcDbLine
 10
1113.138318
 20
1311.109606
 30
0.0
 11
1117.038318
 21
1311.109606
 31
0.0
1001
ACAD
1000
RTLwPs
1070
   128
  0
LINE
  5
3ABB
100
AcDbEntity
  8
MSL-90-P25-R-3A
 48
2.0
100
AcDbLine
 10
1112.938318
 20
1313.526764
 30
0.0
 11
1112.938318
 21
1311.309606
 31
0.0
1001
ACAD
1000
RTLwPs
1070
   128
  0
ARC
  5
3ABC
100
AcDbEntity
  8
MSL-90-P25-R-3A
 48
2.0
100
AcDbCircle
 10
1113.138318
 20
1311.309606
 30
0.0
 40
0.2
100
AcDbArc
 50
180.0
 51
270.0
1001
ACAD
1000
RTLwPs
1070
   128
  0
ARC
  5
3ABD
100
AcDbEntity
  8
MSL-90-P25-R-3A
 48
2.0
100
AcDbCircle
 10
1113.138318
 20
1313.526764
 30
0.0
 40
0.2
100
AcDbArc
 50
135.0
 51
180.0
1001
ACAD
1000
RTLwPs
1070
   128
  0
LINE
  5
3AC1
100
AcDbEntity
  8
MSL-90-P25-R-3A
 48
2.0
100
AcDbLine
 10
1121.588318
 20
1318.36702
 30
0.0
 11
1120.834728
 21
1317.931935
 31
0.0
1001
ACAD
1000
RTLwPs
1070
   128
  0
ARC
  5
3AC2
100
AcDbEntity
  8
MSL-90-P25-R-3A
 48
2.0
100
AcDbCircle
 10
1117.038318
 20
1310.509606
 30
0.0
 40
0.6
100
AcDbArc
 50
0.0
 51
90.0
1001
ACAD
1000
RTLwPs
1070
   128
  0
LINE
  5
3AC3
100
AcDbEntity
  8
MSL-90-P25-R-3A
 48
2.0
100
AcDbLine
 10
1120.734728
 20
1317.90514
 30
0.0
 11
1117.316695
 21
1317.90514
 31
0.0
1001
ACAD
1000
RTLwPs
1070
   128
  0
ARC
  5
3AC4
100
AcDbEntity
  8
MSL-90-P25-R-3A
 48
2.0
100
AcDbCircle
 10
1117.316695
 20
1317.70514
 30
0.0
 40
0.2
100
AcDbArc
 50
90.0
 51
135.0
1001
ACAD
1000
RTLwPs
1070
   128
  0
LINE
  5
3AC5
100
AcDbEntity
  8
MSL-90-P25-R-3A
 48
2.0
100
AcDbLine
 10
1120.834728
 20
1317.931935
 30
0.0
 11
1120.788318
 21
1317.90514
 31
0.0
1001
ACAD
1000
RTLwPs
1070
   128
  0
LINE
  5
3AC6
100
AcDbEntity
  8
MSL-90-P25-R-3A
 48
2.0
100
AcDbLine
 10
1120.734728
 20
1317.90514
 30
0.0
 11
1120.788318
 21
1317.90514
 31
0.0
1001
ACAD
1000
RTLwPs
1070
   128
  0
ARC
  5
3AC7
100
AcDbEntity
  8
MSL-90-P25-R-3A
 48
2.0
100
AcDbCircle
 10
1120.734728
 20
1318.10514
 30
0.0
 40
0.2
100
AcDbArc
 50
270.0
 51
299.999988
1001
ACAD
1000
RTLwPs
1070
   128
  0
ARC
  5
3AC8
100
AcDbEntity
  8
MSL-90-P25-R-3A
 48
2.0
100
AcDbCircle
 10
1126.338318
 20
1310.509606
 30
0.0
 40
0.6
100
AcDbArc
 50
90.0
 51
180.0
1001
ACAD
1000
RTLwPs
1070
   128
  0
LINE
  5
3AC9
100
AcDbEntity
  8
MSL-90-P25-R-3A
 48
2.0
100
AcDbLine
 10
1126.059941
 20
1317.90514
 30
0.0
 11
1122.641908
 21
1317.90514
 31
0.0
1001
ACAD
1000
RTLwPs
1070
   128
  0
ARC
  5
3ACA
100
AcDbEntity
  8
MSL-90-P25-R-3A
 48
2.0
100
AcDbCircle
 10
1122.641908
 20
1318.10514
 30
0.0
 40
0.2
100
AcDbArc
 50
240.000012
 51
270.0
1001
ACAD
1000
RTLwPs
1070
   128
  0
LINE
  5
3ACB
100
AcDbEntity
  8
MSL-90-P25-R-3A
 48
2.0
100
AcDbLine
 10
1122.588318
 20
1317.90514
 30
0.0
 11
1122.541908
 21
1317.931935
 31
0.0
1001
ACAD
1000
RTLwPs
1070
   128
  0
LINE
  5
3ACC
100
AcDbEntity
  8
MSL-90-P25-R-3A
 48
2.0
100
AcDbLine
 10
1122.541908
 20
1317.931935
 30
0.0
 11
1121.788318
 21
1318.36702
 31
0.0
1001
ACAD
1000
RTLwPs
1070
   128
  0
LINE
  5
3ACD
100
AcDbEntity
  8
MSL-90-P25-R-3A
 48
2.0
100
AcDbLine
 10
1122.588318
 20
1317.90514
 30
0.0
 11
1122.641908
 21
1317.90514
 31
0.0
1001
ACAD
1000
RTLwPs
1070
   128
  0
ARC
  5
3ACE
100
AcDbEntity
  8
MSL-90-P25-R-3A
 48
2.0
100
AcDbCircle
 10
1121.688318
 20
1318.193815
 30
0.0
 40
0.2
100
AcDbArc
 50
60.000012
 51
119.999988
1001
ACAD
1000
RTLwPs
1070
   128
  0
ARC
  5
3ACF
100
AcDbEntity
  8
MSL-90-P25-R-3A
 48
2.0
100
AcDbCircle
 10
1126.059941
 20
1317.70514
 30
0.0
 40
0.2
100
AcDbArc
 50
45.0
 51
90.0
1001
ACAD
1000
RTLwPs
1070
   128
  0
LINE
  5
3AEA
100
AcDbEntity
  8
MSL-90-P25-R-3A
 48
2.0
100
AcDbLine
 10
1130.438318
 20
1311.309606
 30
0.0
 11
1130.438318
 21
1313.526764
 31
0.0
1001
ACAD
1000
RTLwPs
1070
   128
  0
ARC
  5
3AEB
100
AcDbEntity
  8
MSL-90-P25-R-3A
 48
2.0
100
AcDbCircle
 10
1130.238318
 20
1311.309606
 30
0.0
 40
0.2
100
AcDbArc
 50
270.0
 51
0.0
1001
ACAD
1000
RTLwPs
1070
   128
  0
ARC
  5
3AEC
100
AcDbEntity
  8
MSL-90-P25-R-3A
 48
2.0
100
AcDbCircle
 10
1130.238318
 20
1313.526764
 30
0.0
 40
0.2
100
AcDbArc
 50
0.0
 51
45.0
1001
ACAD
1000
RTLwPs
1070
   128
  0
LINE
  5
544F
100
AcDbEntity
  8
MSL-90-P25-R-0
 48
2.0
100
AcDbLine
 10
753.216192
 20
1395.909605
 30
0.0
 11
752.716192
 21
1395.409605
 31
0.0
  0
LINE
  5
5450
100
AcDbEntity
  8
MSL-90-P25-R-0
 48
2.0
100
AcDbLine
 10
762.716192
 20
1395.409605
 30
0.0
 11
762.216192
 21
1395.909605
 31
0.0
  0
LINE
  5
5454
100
AcDbEntity
  8
MSL-90-P25-R-0
 48
2.0
100
AcDbLine
 10
752.716192
 20
1395.409605
 30
0.0
 11
752.716192
 21
1393.909605
 31
0.0
  0
LINE
  5
5455
100
AcDbEntity
  8
MSL-90-P25-R-0
 48
2.0
100
AcDbLine
 10
762.216192
 20
1395.909605
 30
0.0
 11
753.216192
 21
1395.909605
 31
0.0
  0
LINE
  5
5456
100
AcDbEntity
  8
MSL-90-P25-R-0
 48
2.0
100
AcDbLine
 10
762.716192
 20
1393.909605
 30
0.0
 11
762.716192
 21
1395.409605
 31
0.0
  0
LINE
  5
64B6
100
AcDbEntity
  8
MSL-90-P25-R-0
 48
2.0
100
AcDbLine
 10
1060.188365
 20
1395.909605
 30
0.0
 11
1051.188365
 21
1395.909605
 31
0.0
  0
LINE
  5
64B7
100
AcDbEntity
  8
MSL-90-P25-R-0
 48
2.0
100
AcDbLine
 10
1050.688365
 20
1395.409605
 30
0.0
 11
1060.688365
 21
1395.409605
 31
0.0
  0
LINE
  5
64B8
100
AcDbEntity
  8
MSL-90-P25-R-7A
 48
2.0
100
AcDbLine
 10
1055.688365
 20
1398.039358
 30
0.0
 11
1055.688365
 21
1381.712239
 31
0.0
  0
LINE
  5
64B9
100
AcDbEntity
  8
MSL-90-P25-R-7A
 48
2.0
100
AcDbLine
 10
1055.688365
 20
1395.236724
 30
0.0
 11
1055.688365
 21
1378.909605
 31
0.0
  0
LINE
  5
64BA
100
AcDbEntity
  8
MSL-90-P25-R-0
 48
2.0
100
AcDbLine
 10
1051.188365
 20
1395.909605
 30
0.0
 11
1050.688365
 21
1395.409605
 31
0.0
  0
LINE
  5
64BB
100
AcDbEntity
  8
MSL-90-P25-R-0
 48
2.0
100
AcDbLine
 10
1050.688365
 20
1395.409605
 30
0.0
 11
1050.688365
 21
1393.909605
 31
0.0
  0
LINE
  5
64BC
100
AcDbEntity
  8
MSL-90-P25-R-0
 48
2.0
100
AcDbLine
 10
1060.688365
 20
1395.409605
 30
0.0
 11
1060.188365
 21
1395.909605
 31
0.0
  0
LINE
  5
64BD
100
AcDbEntity
  8
MSL-90-P25-R-0
 48
2.0
100
AcDbLine
 10
1060.688365
 20
1393.909605
 30
0.0
 11
1060.688365
 21
1395.409605
 31
0.0
  0
LINE
  5
64BE
100
AcDbEntity
  8
MSL-90-P25-R-0
 48
2.0
100
AcDbLine
 10
1125.188365
 20
1395.909605
 30
0.0
 11
1116.188365
 21
1395.909605
 31
0.0
  0
LINE
  5
64BF
100
AcDbEntity
  8
MSL-90-P25-R-0
 48
2.0
100
AcDbLine
 10
1115.688365
 20
1395.409605
 30
0.0
 11
1125.688365
 21
1395.409605
 31
0.0
  0
LINE
  5
64C0
100
AcDbEntity
  8
MSL-90-P25-R-7A
 48
2.0
100
AcDbLine
 10
1120.688365
 20
1398.039358
 30
0.0
 11
1120.688365
 21
1381.712239
 31
0.0
  0
LINE
  5
64C1
100
AcDbEntity
  8
MSL-90-P25-R-7A
 48
2.0
100
AcDbLine
 10
1120.688365
 20
1395.236724
 30
0.0
 11
1120.688365
 21
1378.909605
 31
0.0
  0
LINE
  5
64C2
100
AcDbEntity
  8
MSL-90-P25-R-0
 48
2.0
100
AcDbLine
 10
1116.188365
 20
1395.909605
 30
0.0
 11
1115.688365
 21
1395.409605
 31
0.0
  0
LINE
  5
64C3
100
AcDbEntity
  8
MSL-90-P25-R-0
 48
2.0
100
AcDbLine
 10
1115.688365
 20
1395.409605
 30
0.0
 11
1115.688365
 21
1393.909605
 31
0.0
  0
LINE
  5
64C4
100
AcDbEntity
  8
MSL-90-P25-R-0
 48
2.0
100
AcDbLine
 10
1125.688365
 20
1395.409605
 30
0.0
 11
1125.188365
 21
1395.909605
 31
0.0
  0
LINE
  5
64C5
100
AcDbEntity
  8
MSL-90-P25-R-0
 48
2.0
100
AcDbLine
 10
1125.688365
 20
1393.909605
 30
0.0
 11
1125.688365
 21
1395.409605
 31
0.0
  0
LINE
  5
69F8
100
AcDbEntity
  8
MSL-90-P25-R-0
 48
2.0
100
AcDbLine
 10
638.716192
 20
1386.659605
 30
0.0
 11
638.716192
 21
1384.409605
 31
0.0
  0
LINE
  5
69F9
100
AcDbEntity
  8
MSL-90-P25-R-0
 48
2.0
100
AcDbLine
 10
639.216192
 20
1387.159605
 30
0.0
 11
638.716192
 21
1386.659605
 31
0.0
  0
LINE
  5
69FA
100
AcDbEntity
  8
MSL-90-P25-R-0
 48
2.0
100
AcDbLine
 10
642.216192
 20
1387.159605
 30
0.0
 11
639.216192
 21
1387.159605
 31
0.0
  0
ARC
  5
69FB
100
AcDbEntity
  8
MSL-90-P25-R-0
 48
2.0
100
AcDbCircle
 10
642.216192
 20
1387.659605
 30
0.0
 40
0.5
100
AcDbArc
 50
270.0
 51
0.0
  0
LINE
  5
69FC
100
AcDbEntity
  8
MSL-90-P25-R-0
 48
2.0
100
AcDbLine
 10
642.716192
 20
1388.409605
 30
0.0
 11
642.716192
 21
1387.659605
 31
0.0
  0
LINE
  5
69FD
100
AcDbEntity
  8
MSL-90-P25-R-0
 48
2.0
100
AcDbLine
 10
646.716192
 20
1388.409605
 30
0.0
 11
642.716192
 21
1388.409605
 31
0.0
  0
LINE
  5
69FE
100
AcDbEntity
  8
MSL-90-P25-R-0
 48
2.0
100
AcDbLine
 10
647.210638
 20
1387.915159
 30
0.0
 11
646.716192
 21
1388.409605
 31
0.0
  0
ARC
  5
6A00
100
AcDbEntity
  8
MSL-90-P25-R-0
 48
2.0
100
AcDbCircle
 10
930.218356
 20
1254.841523
 30
0.0
 40
6.0
100
AcDbArc
 50
85.240549
 51
90.0
1001
ACAD
1000
RTLwPs
1070
   128
  0
ARC
  5
6A01
100
AcDbEntity
  8
MSL-90-P25-R-0
 48
2.0
100
AcDbCircle
 10
930.218356
 20
1254.841523
 30
0.0
 40
6.0
100
AcDbArc
 50
360.0
 51
0.0
1001
ACAD
1000
RTLwPs
1070
   128
  0
LINE
  5
6A02
100
AcDbEntity
  8
MSL-90-P25-R-0
 48
2.0
100
AcDbLine
 10
930.218356
 20
1260.841523
 30
0.0
 11
918.218356
 21
1260.841523
 31
0.0
1001
ACAD
1000
RTLwPs
1070
   128
  0
CIRCLE
  5
6A03
100
AcDbEntity
  8
MSL-90-P25-R-0
 48
2.0
100
AcDbCircle
 10
929.218356
 20
1244.841523
 30
0.0
 40
3.2
1001
ACAD
1000
RTLwPs
1070
   128
  0
CIRCLE
  5
6A04
100
AcDbEntity
  8
MSL-90-P25-R-0
 48
2.0
100
AcDbCircle
 10
929.218356
 20
1244.841523
 30
0.0
 40
3.0
1001
ACAD
1000
RTLwPs
1070
   128
  0
LINE
  5
6A05
100
AcDbEntity
  8
MSL-90-P25-R-5
100
AcDbLine
 10
822.216191
 20
1383.659605
 30
0.0
 11
829.216191
 21
1383.659605
 31
0.0
  0
LINE
  5
6A06
100
AcDbEntity
  8
MSL-90-P25-R-5
100
AcDbLine
 10
822.216191
 20
1377.159605
 30
0.0
 11
829.216191
 21
1377.159605
 31
0.0
  0
LINE
  5
6A07
100
AcDbEntity
  8
MSL-90-P25-R-5
100
AcDbLine
 10
822.216191
 20
1231.087275
 30
0.0
 11
829.216191
 21
1231.087275
 31
0.0
  0
LINE
  5
6A08
100
AcDbEntity
  8
MSL-90-P25-R-5
100
AcDbLine
 10
822.216191
 20
1237.587275
 30
0.0
 11
829.216191
 21
1237.587275
 31
0.0
  0
POLYLINE
  5
6A09
100
AcDbEntity
  8
MSL-90-P25-R-0
 48
2.0
100
AcDb2dPolyline
 66
     1
 10
0.0
 20
0.0
 30
0.0
  0
VERTEX
  5
6A0A
100
AcDbEntity
  8
MSL-90-P25-R-0
 48
2.0
100
AcDbVertex
100
AcDb2dVertex
 10
634.716192
 20
1254.341523
 30
0.0
  0
VERTEX
  5
6A0B
100
AcDbEntity
  8
MSL-90-P25-R-0
 48
2.0
100
AcDbVertex
100
AcDb2dVertex
 10
634.716192
 20
1247.841523
 30
0.0
  0
VERTEX
  5
6A0C
100
AcDbEntity
  8
MSL-90-P25-R-0
 48
2.0
100
AcDbVertex
100
AcDb2dVertex
 10
634.216192
 20
1247.341523
 30
0.0
  0
VERTEX
  5
6A0D
100
AcDbEntity
  8
MSL-90-P25-R-0
 48
2.0
100
AcDbVertex
100
AcDb2dVertex
 10
629.216192
 20
1247.341523
 30
0.0
  0
SEQEND
  5
6A0E
100
AcDbEntity
  8
MSL-90-P25-R-0
 48
2.0
  0
POLYLINE
  5
6A0F
100
AcDbEntity
  8
MSL-90-P25-R-0
 48
2.0
100
AcDb2dPolyline
 66
     1
 10
0.0
 20
0.0
 30
0.0
  0
VERTEX
  5
6A10
100
AcDbEntity
  8
MSL-90-P25-R-0
 48
2.0
100
AcDbVertex
100
AcDb2dVertex
 10
634.716192
 20
1387.910911
 30
0.0
  0
VERTEX
  5
6A11
100
AcDbEntity
  8
MSL-90-P25-R-0
 48
2.0
100
AcDbVertex
100
AcDb2dVertex
 10
634.716192
 20
1388.909605
 30
0.0
  0
VERTEX
  5
6A12
100
AcDbEntity
  8
MSL-90-P25-R-0
 48
2.0
100
AcDbVertex
100
AcDb2dVertex
 10
634.216192
 20
1389.409605
 30
0.0
  0
VERTEX
  5
6A13
100
AcDbEntity
  8
MSL-90-P25-R-0
 48
2.0
100
AcDbVertex
100
AcDb2dVertex
 10
631.716192
 20
1389.409605
 30
0.0
  0
SEQEND
  5
6A14
100
AcDbEntity
  8
MSL-90-P25-R-0
 48
2.0
  0
LINE
  5
6A24
100
AcDbEntity
  8
MSL-90-P25-R-7A
 48
2.0
100
AcDbLine
 10
803.208244
 20
1367.909605
 30
0.0
 11
924.668605
 21
1367.909605
 31
0.0
  0
LINE
  5
6A25
100
AcDbEntity
  8
MSL-90-P25-R-7A
 48
2.0
100
AcDbLine
 10
690.981641
 20
1367.909605
 30
0.0
 11
772.237352
 21
1367.909605
 31
0.0
  0
LINE
  5
6A26
100
AcDbEntity
  8
MSL-90-P25-R-7A
 48
2.0
100
AcDbLine
 10
639.4272
 20
1367.909605
 30
0.0
 11
663.126782
 21
1367.909605
 31
0.0
  0
LINE
  5
6A57
100
AcDbEntity
  8
MSL-90-P25-R-7A
 48
2.0
100
AcDbLine
 10
644.559052
 20
1267.841523
 30
0.0
 11
653.385466
 21
1267.841523
 31
0.0
  0
LINE
  5
6A58
100
AcDbEntity
  8
MSL-90-P25-R-7A
 48
2.0
100
AcDbLine
 10
644.559052
 20
1200.841523
 30
0.0
 11
653.385466
 21
1200.841523
 31
0.0
  0
LINE
  5
6A59
100
AcDbEntity
  8
MSL-90-P25-R-0
 48
2.0
100
AcDbLine
 10
647.216192
 20
1194.841523
 30
0.0
 11
649.716192
 21
1194.841523
 31
0.0
  0
LINE
  5
6A5A
100
AcDbEntity
  8
MSL-90-P25-R-0
 48
2.0
100
AcDbLine
 10
647.216192
 20
1206.841523
 30
0.0
 11
649.716192
 21
1206.841523
 31
0.0
  0
LINE
  5
6A5B
100
AcDbEntity
  8
MSL-90-P25-R-0
 48
2.0
100
AcDbLine
 10
647.216192
 20
1261.841523
 30
0.0
 11
649.716192
 21
1261.841523
 31
0.0
  0
LINE
  5
6A5C
100
AcDbEntity
  8
MSL-90-P25-R-0
 48
2.0
100
AcDbLine
 10
647.216192
 20
1273.841523
 30
0.0
 11
649.716192
 21
1273.841523
 31
0.0
  0
LINE
  5
6A5D
100
AcDbEntity
  8
MSL-90-P25-R-7A
 48
2.0
100
AcDbLine
 10
812.562152
 20
1267.841523
 30
0.0
 11
927.763665
 21
1267.841523
 31
0.0
  0
LINE
  5
6A5E
100
AcDbEntity
  8
MSL-90-P25-R-0
 48
2.0
100
AcDbLine
 10
816.216192
 20
1194.841523
 30
0.0
 11
918.218356
 21
1194.841523
 31
0.0
  0
LINE
  5
6A5F
100
AcDbEntity
  8
MSL-90-P25-R-0
 48
2.0
100
AcDbLine
 10
816.216192
 20
1206.841523
 30
0.0
 11
918.218356
 21
1206.841523
 31
0.0
  0
LINE
  5
6A60
100
AcDbEntity
  8
MSL-90-P25-R-0
 48
2.0
100
AcDbLine
 10
816.216192
 20
1261.841523
 30
0.0
 11
918.218356
 21
1261.841523
 31
0.0
  0
LINE
  5
6A61
100
AcDbEntity
  8
MSL-90-P25-R-0
 48
2.0
100
AcDbLine
 10
816.216192
 20
1273.841523
 30
0.0
 11
918.218356
 21
1273.841523
 31
0.0
  0
LINE
  5
6A62
100
AcDbEntity
  8
MSL-90-P25-R-0
 48
2.0
100
AcDbLine
 10
1014.218356
 20
1260.292039
 30
0.0
 11
1014.718356
 21
1259.792039
 31
0.0
  0
LINE
  5
6A63
100
AcDbEntity
  8
MSL-90-P25-R-0
 48
2.0
100
AcDbLine
 10
1007.218356
 20
1261.292039
 30
0.0
 11
1007.718356
 21
1260.792039
 31
0.0
  0
LINE
  5
6A64
100
AcDbEntity
  8
MSL-90-P25-R-0
 48
2.0
100
AcDbLine
 10
1007.718356
 20
1260.792039
 30
0.0
 11
1007.718356
 21
1260.292039
 31
0.0
  0
LINE
  5
6A65
100
AcDbEntity
  8
MSL-90-P25-R-0
 48
2.0
100
AcDbLine
 10
1007.718356
 20
1260.292039
 30
0.0
 11
1014.218356
 21
1260.292039
 31
0.0
  0
LINE
  5
6A66
100
AcDbEntity
  8
MSL-90-P25-R-0
 48
2.0
100
AcDbLine
 10
1014.218356
 20
1248.292039
 30
0.0
 11
1014.718356
 21
1248.792039
 31
0.0
  0
LINE
  5
6A67
100
AcDbEntity
  8
MSL-90-P25-R-0
 48
2.0
100
AcDbLine
 10
1007.718356
 20
1247.792039
 30
0.0
 11
1007.718356
 21
1248.292039
 31
0.0
  0
LINE
  5
6A68
100
AcDbEntity
  8
MSL-90-P25-R-0
 48
2.0
100
AcDbLine
 10
1007.218356
 20
1247.292039
 30
0.0
 11
1007.718356
 21
1247.792039
 31
0.0
  0
LINE
  5
6A69
100
AcDbEntity
  8
MSL-90-P25-R-0
 48
2.0
100
AcDbLine
 10
1007.718356
 20
1248.292039
 30
0.0
 11
1014.218356
 21
1248.292039
 31
0.0
  0
LINE
  5
6A6A
100
AcDbEntity
  8
MSL-90-P25-R-0
 48
2.0
100
AcDbLine
 10
1007.718356
 20
1248.292039
 30
0.0
 11
1007.718356
 21
1254.292039
 31
0.0
  0
LINE
  5
6A6B
100
AcDbEntity
  8
MSL-90-P25-R-0
 48
2.0
100
AcDbLine
 10
1007.218356
 20
1247.292039
 30
0.0
 11
1007.218356
 21
1261.292039
 31
0.0
  0
LINE
  5
6A6C
100
AcDbEntity
  8
MSL-90-P25-R-0
 48
2.0
100
AcDbLine
 10
1014.718356
 20
1248.792039
 30
0.0
 11
1014.718356
 21
1259.792039
 31
0.0
  0
LINE
  5
6A6D
100
AcDbEntity
  8
MSL-90-P25-R-0
 48
2.0
100
AcDbLine
 10
1014.218356
 20
1248.292039
 30
0.0
 11
1014.218356
 21
1260.292039
 31
0.0
  0
LINE
  5
6A6E
100
AcDbEntity
  8
MSL-90-P25-R-0
 48
2.0
100
AcDbLine
 10
1007.718356
 20
1260.292039
 30
0.0
 11
1007.718356
 21
1254.292039
 31
0.0
  0
LINE
  5
6A6F
100
AcDbEntity
  8
MSL-90-P25-R-0
 48
2.0
100
AcDbLine
 10
950.218356
 20
1279.341523
 30
0.0
 11
950.218356
 21
1276.341523
 31
0.0
1001
ACAD
1000
RTLwPs
1070
   128
  0
ARC
  5
6A70
100
AcDbEntity
  8
MSL-90-P25-R-0
 48
2.0
100
AcDbCircle
 10
934.79707
 20
1258.443773
 30
0.0
 40
20.421821
100
AcDbArc
 50
0.414532
 51
12.435804
1001
ACAD
1000
RTLwPs
1070
   128
  0
LINE
  5
6A71
100
AcDbEntity
  8
MSL-90-P25-R-0
 48
2.0
100
AcDbLine
 10
954.739752
 20
1262.841523
 30
0.0
 11
955.218356
 21
1262.841523
 31
0.0
1001
ACAD
1000
RTLwPs
1070
   128
  0
LINE
  5
6A72
100
AcDbEntity
  8
MSL-90-P25-R-0
 48
2.0
100
AcDbLine
 10
955.218356
 20
1262.841523
 30
0.0
 11
955.218356
 21
1258.591523
 31
0.0
1001
ACAD
1000
RTLwPs
1070
   128
  0
ARC
  5
6A73
100
AcDbEntity
  8
MSL-90-P25-R-0
 48
2.0
100
AcDbCircle
 10
970.654048
 20
1258.442151
 30
0.0
 40
20.436238
100
AcDbArc
 50
167.568452
 51
179.581213
1001
ACAD
1000
RTLwPs
1070
   128
  0
LINE
  5
6A74
100
AcDbEntity
  8
MSL-90-P25-R-0
 48
2.0
100
AcDbLine
 10
950.218356
 20
1262.841523
 30
0.0
 11
950.696961
 21
1262.841523
 31
0.0
1001
ACAD
1000
RTLwPs
1070
   128
  0
LINE
  5
6A75
100
AcDbEntity
  8
MSL-90-P25-R-0
 48
2.0
100
AcDbLine
 10
954.739752
 20
1262.841523
 30
0.0
 11
950.696961
 21
1262.841523
 31
0.0
1001
ACAD
1000
RTLwPs
1070
   128
  0
LINE
  5
6A76
100
AcDbEntity
  8
MSL-90-P25-R-0
 48
2.0
100
AcDbLine
 10
988.718356
 20
1238.341523
 30
0.0
 11
988.718356
 21
1236.341523
 31
0.0
1001
ACAD
1000
RTLwPs
1070
   128
  0
LINE
  5
6A77
100
AcDbEntity
  8
MSL-90-P25-R-0
 48
2.0
100
AcDbLine
 10
988.718356
 20
1232.341523
 30
0.0
 11
988.718356
 21
1230.341523
 31
0.0
1001
ACAD
1000
RTLwPs
1070
   128
  0
LINE
  5
6A78
100
AcDbEntity
  8
MSL-90-P25-R-0
 48
2.0
100
AcDbLine
 10
988.718356
 20
1232.341523
 30
0.0
 11
988.718356
 21
1236.341523
 31
0.0
1001
ACAD
1000
RTLwPs
1070
   128
  0
LINE
  5
6A79
100
AcDbEntity
  8
MSL-90-P25-R-0
 48
2.0
100
AcDbLine
 10
980.218356
 20
1236.341523
 30
0.0
 11
980.218356
 21
1238.341523
 31
0.0
1001
ACAD
1000
RTLwPs
1070
   128
  0
LINE
  5
6A7A
100
AcDbEntity
  8
MSL-90-P25-R-0
 48
2.0
100
AcDbLine
 10
980.218356
 20
1230.341523
 30
0.0
 11
980.218356
 21
1232.341523
 31
0.0
1001
ACAD
1000
RTLwPs
1070
   128
  0
LINE
  5
6A7B
100
AcDbEntity
  8
MSL-90-P25-R-0
 48
2.0
100
AcDbLine
 10
980.218356
 20
1232.341523
 30
0.0
 11
980.218356
 21
1236.341523
 31
0.0
1001
ACAD
1000
RTLwPs
1070
   128
  0
LINE
  5
6A7C
100
AcDbEntity
  8
MSL-90-P25-R-0
 48
2.0
100
AcDbLine
 10
988.718356
 20
1230.341523
 30
0.0
 11
980.218356
 21
1230.341523
 31
0.0
1001
ACAD
1000
RTLwPs
1070
   128
  0
LINE
  5
6A7D
100
AcDbEntity
  8
MSL-90-P25-R-0
 48
2.0
100
AcDbLine
 10
980.218356
 20
1238.341523
 30
0.0
 11
988.718356
 21
1238.341523
 31
0.0
1001
ACAD
1000
RTLwPs
1070
   128
  0
LINE
  5
6A7E
100
AcDbEntity
  8
MSL-90-P25-R-0
 48
2.0
100
AcDbLine
 10
954.739752
 20
1254.341523
 30
0.0
 11
950.696961
 21
1254.341523
 31
0.0
1001
ACAD
1000
RTLwPs
1070
   128
  0
ARC
  5
6A7F
100
AcDbEntity
  8
MSL-90-P25-R-0
 48
2.0
100
AcDbCircle
 10
934.782665
 20
1250.240894
 30
0.0
 40
20.436238
100
AcDbArc
 50
347.568452
 51
359.581213
1001
ACAD
1000
RTLwPs
1070
   128
  0
LINE
  5
6A80
100
AcDbEntity
  8
MSL-90-P25-R-0
 48
2.0
100
AcDbLine
 10
955.218356
 20
1245.841523
 30
0.0
 11
954.739752
 21
1245.841523
 31
0.0
1001
ACAD
1000
RTLwPs
1070
   128
  0
LINE
  5
6A81
100
AcDbEntity
  8
MSL-90-P25-R-0
 48
2.0
100
AcDbLine
 10
955.218356
 20
1250.091523
 30
0.0
 11
955.218356
 21
1245.841523
 31
0.0
1001
ACAD
1000
RTLwPs
1070
   128
  0
ARC
  5
6A82
100
AcDbEntity
  8
MSL-90-P25-R-0
 48
2.0
100
AcDbCircle
 10
970.639643
 20
1250.239272
 30
0.0
 40
20.421821
100
AcDbArc
 50
180.414532
 51
192.435804
1001
ACAD
1000
RTLwPs
1070
   128
  0
LINE
  5
6A83
100
AcDbEntity
  8
MSL-90-P25-R-0
 48
2.0
100
AcDbLine
 10
950.696961
 20
1245.841523
 30
0.0
 11
950.218356
 21
1245.841523
 31
0.0
1001
ACAD
1000
RTLwPs
1070
   128
  0
LINE
  5
6A84
100
AcDbEntity
  8
MSL-90-P25-R-0
 48
2.0
100
AcDbLine
 10
954.739752
 20
1245.841523
 30
0.0
 11
950.696961
 21
1245.841523
 31
0.0
1001
ACAD
1000
RTLwPs
1070
   128
  0
ARC
  5
6A85
100
AcDbEntity
  8
MSL-90-P25-R-0
 48
2.0
100
AcDbCircle
 10
970.654048
 20
1249.942151
 30
0.0
 40
20.436238
100
AcDbArc
 50
167.568452
 51
179.581213
1001
ACAD
1000
RTLwPs
1070
   128
  0
ARC
  5
6A86
100
AcDbEntity
  8
MSL-90-P25-R-0
 48
2.0
100
AcDbCircle
 10
934.79707
 20
1249.943773
 30
0.0
 40
20.421821
100
AcDbArc
 50
0.414532
 51
12.435804
1001
ACAD
1000
RTLwPs
1070
   128
  0
LINE
  5
6A87
100
AcDbEntity
  8
MSL-90-P25-R-0
 48
2.0
100
AcDbLine
 10
971.718356
 20
1237.841523
 30
0.0
 11
963.718356
 21
1237.841523
 31
0.0
1001
ACAD
1000
RTLwPs
1070
   128
  0
LINE
  5
6A88
100
AcDbEntity
  8
MSL-90-P25-R-0
 48
2.0
100
AcDbLine
 10
963.718356
 20
1230.841523
 30
0.0
 11
971.718356
 21
1230.841523
 31
0.0
1001
ACAD
1000
RTLwPs
1070
   128
  0
LINE
  5
6A89
100
AcDbEntity
  8
MSL-90-P25-R-0
 48
2.0
100
AcDbLine
 10
971.718356
 20
1230.341523
 30
0.0
 11
971.718356
 21
1238.341523
 31
0.0
1001
ACAD
1000
RTLwPs
1070
   128
  0
LINE
  5
6A8A
100
AcDbEntity
  8
MSL-90-P25-R-0
 48
2.0
100
AcDbLine
 10
963.718356
 20
1230.341523
 30
0.0
 11
963.718356
 21
1238.341523
 31
0.0
1001
ACAD
1000
RTLwPs
1070
   128
  0
LINE
  5
6A8B
100
AcDbEntity
  8
MSL-90-P25-R-0
 48
2.0
100
AcDbLine
 10
951.218356
 20
1241.573574
 30
0.0
 11
950.218356
 21
1241.841523
 31
0.0
1001
ACAD
1000
RTLwPs
1070
   128
  0
LINE
  5
6A8C
100
AcDbEntity
  8
MSL-90-P25-R-5
 48
2.0
100
AcDbLine
 10
951.218356
 20
1237.576523
 30
0.0
 11
963.718356
 21
1237.576523
 31
0.0
1001
ACAD
1000
RTLwPs
1070
   128
  0
LINE
  5
6A8D
100
AcDbEntity
  8
MSL-90-P25-R-5
 48
2.0
100
AcDbLine
 10
951.218356
 20
1231.106523
 30
0.0
 11
963.718356
 21
1231.106523
 31
0.0
1001
ACAD
1000
RTLwPs
1070
   128
  0
LINE
  5
6A8E
100
AcDbEntity
  8
MSL-90-P25-R-0
 48
2.0
100
AcDbLine
 10
963.718356
 20
1238.341523
 30
0.0
 11
951.218356
 21
1238.341523
 31
0.0
1001
ACAD
1000
RTLwPs
1070
   128
  0
LINE
  5
6A8F
100
AcDbEntity
  8
MSL-90-P25-R-0
 48
2.0
100
AcDbLine
 10
951.218356
 20
1230.341523
 30
0.0
 11
963.718356
 21
1230.341523
 31
0.0
1001
ACAD
1000
RTLwPs
1070
   128
  0
LINE
  5
6A90
100
AcDbEntity
  8
MSL-90-P25-R-0
 48
2.0
100
AcDbLine
 10
971.718356
 20
1230.341523
 30
0.0
 11
980.218356
 21
1230.341523
 31
0.0
1001
ACAD
1000
RTLwPs
1070
   128
  0
LINE
  5
6A91
100
AcDbEntity
  8
MSL-90-P25-R-0
 48
2.0
100
AcDbLine
 10
980.218356
 20
1238.341523
 30
0.0
 11
971.718356
 21
1238.341523
 31
0.0
1001
ACAD
1000
RTLwPs
1070
   128
  0
ARC
  5
6A92
100
AcDbEntity
  8
MSL-90-P25-R-0
 48
2.0
100
AcDbCircle
 10
970.639643
 20
1258.739272
 30
0.0
 40
20.421821
100
AcDbArc
 50
180.414532
 51
192.435804
1001
ACAD
1000
RTLwPs
1070
   128
  0
ARC
  5
6A93
100
AcDbEntity
  8
MSL-90-P25-R-0
 48
2.0
100
AcDbCircle
 10
934.782665
 20
1258.740894
 30
0.0
 40
20.436238
100
AcDbArc
 50
347.568452
 51
359.581213
1001
ACAD
1000
RTLwPs
1070
   128
  0
LINE
  5
6A94
100
AcDbEntity
  8
MSL-90-P25-R-0
 48
2.0
100
AcDbLine
 10
955.218356
 20
1258.591523
 30
0.0
 11
955.218356
 21
1250.091523
 31
0.0
1001
ACAD
1000
RTLwPs
1070
   128
  0
LINE
  5
6A95
100
AcDbEntity
  8
MSL-90-P25-R-0
 48
2.0
100
AcDbLine
 10
936.218356
 20
1276.341523
 30
0.0
 11
936.218356
 21
1279.341523
 31
0.0
1001
ACAD
1000
RTLwPs
1070
   128
  0
POLYLINE
  5
6A96
100
AcDbEntity
  8
MSL-90-P25-R-0
 48
2.0
100
AcDb2dPolyline
 66
     1
 10
0.0
 20
0.0
 30
0.0
  0
VERTEX
  5
6A97
100
AcDbEntity
  8
MSL-90-P25-R-0
 48
2.0
100
AcDbVertex
100
AcDb2dVertex
 10
926.716192
 20
1259.841523
 30
0.0
  0
VERTEX
  5
6A98
100
AcDbEntity
  8
MSL-90-P25-R-0
 48
2.0
100
AcDbVertex
100
AcDb2dVertex
 10
927.716192
 20
1259.841523
 30
0.0
  0
VERTEX
  5
6A99
100
AcDbEntity
  8
MSL-90-P25-R-0
 48
2.0
100
AcDbVertex
100
AcDb2dVertex
 10
930.716192
 20
1260.841523
 30
0.0
  0
SEQEND
  5
6A9A
100
AcDbEntity
  8
MSL-90-P25-R-0
 48
2.0
  0
LINE
  5
6A9B
100
AcDbEntity
  8
MSL-90-P25-R-5
 48
2.0
100
AcDbLine
 10
936.218356
 20
1260.841523
 30
0.0
 11
930.716192
 21
1260.841523
 31
0.0
  0
LINE
  5
6A9C
100
AcDbEntity
  8
MSL-90-P25-R-0
 48
2.0
100
AcDbLine
 10
931.304143
 20
1247.341523
 30
0.0
 11
932.718356
 21
1245.927309
 31
0.0
1001
ACAD
1000
RTLwPs
1070
   128
  0
LINE
  5
6A9D
100
AcDbEntity
  8
MSL-90-P25-R-0
 48
2.0
100
AcDbLine
 10
933.718356
 20
1246.341523
 30
0.0
 11
932.718356
 21
1247.341523
 31
0.0
1001
ACAD
1000
RTLwPs
1070
   128
  0
LINE
  5
6A9E
100
AcDbEntity
  8
MSL-90-P25-R-0
 48
2.0
100
AcDbLine
 10
934.399284
 20
1244.141523
 30
0.0
 11
936.218356
 21
1244.141523
 31
0.0
  0
LINE
  5
6A9F
100
AcDbEntity
  8
MSL-90-P25-R-0
 48
2.0
100
AcDbLine
 10
932.718356
 20
1245.927309
 30
0.0
 11
933.718356
 21
1246.341523
 31
0.0
1001
ACAD
1000
RTLwPs
1070
   128
  0
LINE
  5
6AA0
100
AcDbEntity
  8
MSL-90-P25-R-0
 48
2.0
100
AcDbLine
 10
932.718356
 20
1247.341523
 30
0.0
 11
933.718356
 21
1246.341523
 31
0.0
1001
ACAD
1000
RTLwPs
1070
   128
  0
LINE
  5
6AA1
100
AcDbEntity
  8
MSL-90-P25-R-0
 48
2.0
100
AcDbLine
 10
932.718356
 20
1245.927309
 30
0.0
 11
931.304143
 21
1247.341523
 31
0.0
1001
ACAD
1000
RTLwPs
1070
   128
  0
LINE
  5
6AA2
100
AcDbEntity
  8
MSL-90-P25-R-0
 48
2.0
100
AcDbLine
 10
932.718356
 20
1245.927309
 30
0.0
 11
932.718356
 21
1243.393504
 31
0.0
1001
ACAD
1000
RTLwPs
1070
   128
  0
LINE
  5
6AA3
100
AcDbEntity
  8
MSL-90-P25-R-0
 48
2.0
100
AcDbLine
 10
933.718356
 20
1246.341523
 30
0.0
 11
933.718356
 21
1243.393504
 31
0.0
  0
POLYLINE
  5
6AA4
100
AcDbEntity
  8
MSL-90-P25-R-0
 48
2.0
100
AcDb2dPolyline
 66
     1
 10
0.0
 20
0.0
 30
0.0
  0
VERTEX
  5
6AA5
100
AcDbEntity
  8
MSL-90-P25-R-0
 48
2.0
100
AcDbVertex
100
AcDb2dVertex
 10
926.716192
 20
1248.841523
 30
0.0
  0
VERTEX
  5
6AA6
100
AcDbEntity
  8
MSL-90-P25-R-0
 48
2.0
100
AcDbVertex
100
AcDb2dVertex
 10
927.716192
 20
1248.841523
 30
0.0
  0
VERTEX
  5
6AA7
100
AcDbEntity
  8
MSL-90-P25-R-0
 48
2.0
100
AcDbVertex
100
AcDb2dVertex
 10
930.716192
 20
1247.841523
 30
0.0
  0
SEQEND
  5
6AA8
100
AcDbEntity
  8
MSL-90-P25-R-0
 48
2.0
  0
ARC
  5
6AA9
100
AcDbEntity
  8
MSL-90-P25-R-0
 48
2.0
100
AcDbCircle
 10
929.218356
 20
1244.841523
 30
0.0
 40
0.9
100
AcDbArc
 50
303.748989
 51
326.251011
1001
ACAD
1000
RTLwPs
1070
   128
  0
LINE
  5
6AAA
100
AcDbEntity
  8
MSL-90-P25-R-0
 48
2.0
100
AcDbLine
 10
928.718356
 20
1244.341523
 30
0.0
 11
928.718356
 21
1244.093191
 31
0.0
1001
ACAD
1000
RTLwPs
1070
   128
  0
LINE
  5
6AAB
100
AcDbEntity
  8
MSL-90-P25-R-0
 48
2.0
100
AcDbLine
 10
929.718356
 20
1244.093191
 30
0.0
 11
929.718356
 21
1244.341523
 31
0.0
1001
ACAD
1000
RTLwPs
1070
   128
  0
LINE
  5
6AAC
100
AcDbEntity
  8
MSL-90-P25-R-0
 48
2.0
100
AcDbLine
 10
929.718356
 20
1245.341523
 30
0.0
 11
929.718356
 21
1245.589854
 31
0.0
1001
ACAD
1000
RTLwPs
1070
   128
  0
LINE
  5
6AAD
100
AcDbEntity
  8
MSL-90-P25-R-0
 48
2.0
100
AcDbLine
 10
929.966688
 20
1244.341523
 30
0.0
 11
930.718356
 21
1244.341523
 31
0.0
1001
ACAD
1000
RTLwPs
1070
   128
  0
LINE
  5
6AAE
100
AcDbEntity
  8
MSL-90-P25-R-0
 48
2.0
100
AcDbLine
 10
930.718356
 20
1245.341523
 30
0.0
 11
929.966688
 21
1245.341523
 31
0.0
1001
ACAD
1000
RTLwPs
1070
   128
  0
LINE
  5
6AAF
100
AcDbEntity
  8
MSL-90-P25-R-0
 48
2.0
100
AcDbLine
 10
928.718356
 20
1244.093191
 30
0.0
 11
928.718356
 21
1243.341523
 31
0.0
1001
ACAD
1000
RTLwPs
1070
   128
  0
LINE
  5
6AB0
100
AcDbEntity
  8
MSL-90-P25-R-0
 48
2.0
100
AcDbLine
 10
928.718356
 20
1243.341523
 30
0.0
 11
929.718356
 21
1243.341523
 31
0.0
1001
ACAD
1000
RTLwPs
1070
   128
  0
LINE
  5
6AB1
100
AcDbEntity
  8
MSL-90-P25-R-0
 48
2.0
100
AcDbLine
 10
929.718356
 20
1243.341523
 30
0.0
 11
929.718356
 21
1244.093191
 31
0.0
1001
ACAD
1000
RTLwPs
1070
   128
  0
LINE
  5
6AB2
100
AcDbEntity
  8
MSL-90-P25-R-0
 48
2.0
100
AcDbLine
 10
929.718356
 20
1245.589854
 30
0.0
 11
929.718356
 21
1246.341523
 31
0.0
1001
ACAD
1000
RTLwPs
1070
   128
  0
ARC
  5
6AB3
100
AcDbEntity
  8
MSL-90-P25-R-0
 48
2.0
100
AcDbCircle
 10
929.218356
 20
1244.841523
 30
0.0
 40
0.9
100
AcDbArc
 50
213.748989
 51
236.251011
1001
ACAD
1000
RTLwPs
1070
   128
  0
LINE
  5
6AB4
100
AcDbEntity
  8
MSL-90-P25-R-0
 48
2.0
100
AcDbLine
 10
928.718356
 20
1244.341523
 30
0.0
 11
928.470025
 21
1244.341523
 31
0.0
1001
ACAD
1000
RTLwPs
1070
   128
  0
LINE
  5
6AB5
100
AcDbEntity
  8
MSL-90-P25-R-0
 48
2.0
100
AcDbLine
 10
929.966688
 20
1244.341523
 30
0.0
 11
929.718356
 21
1244.341523
 31
0.0
1001
ACAD
1000
RTLwPs
1070
   128
  0
LINE
  5
6AB6
100
AcDbEntity
  8
MSL-90-P25-R-0
 48
2.0
100
AcDbLine
 10
929.718356
 20
1245.341523
 30
0.0
 11
929.966688
 21
1245.341523
 31
0.0
1001
ACAD
1000
RTLwPs
1070
   128
  0
LINE
  5
6AB7
100
AcDbEntity
  8
MSL-90-P25-R-0
 48
2.0
100
AcDbLine
 10
930.718356
 20
1244.341523
 30
0.0
 11
930.718356
 21
1245.341523
 31
0.0
1001
ACAD
1000
RTLwPs
1070
   128
  0
ARC
  5
6AB8
100
AcDbEntity
  8
MSL-90-P25-R-0
 48
2.0
100
AcDbCircle
 10
929.218356
 20
1244.841523
 30
0.0
 40
0.9
100
AcDbArc
 50
33.748989
 51
56.251011
1001
ACAD
1000
RTLwPs
1070
   128
  0
ARC
  5
6AB9
100
AcDbEntity
  8
MSL-90-P25-R-0
 48
2.0
100
AcDbCircle
 10
929.218356
 20
1244.841523
 30
0.0
 40
0.9
100
AcDbArc
 50
123.748989
 51
146.251011
1001
ACAD
1000
RTLwPs
1070
   128
  0
LINE
  5
6ABA
100
AcDbEntity
  8
MSL-90-P25-R-0
 48
2.0
100
AcDbLine
 10
928.470025
 20
1245.341523
 30
0.0
 11
927.718356
 21
1245.341523
 31
0.0
1001
ACAD
1000
RTLwPs
1070
   128
  0
LINE
  5
6ABB
100
AcDbEntity
  8
MSL-90-P25-R-0
 48
2.0
100
AcDbLine
 10
927.718356
 20
1245.341523
 30
0.0
 11
927.718356
 21
1244.341523
 31
0.0
1001
ACAD
1000
RTLwPs
1070
   128
  0
LINE
  5
6ABC
100
AcDbEntity
  8
MSL-90-P25-R-0
 48
2.0
100
AcDbLine
 10
927.718356
 20
1244.341523
 30
0.0
 11
928.470025
 21
1244.341523
 31
0.0
1001
ACAD
1000
RTLwPs
1070
   128
  0
LINE
  5
6ABD
100
AcDbEntity
  8
MSL-90-P25-R-0
 48
2.0
100
AcDbLine
 10
928.718356
 20
1245.589854
 30
0.0
 11
928.718356
 21
1245.341523
 31
0.0
1001
ACAD
1000
RTLwPs
1070
   128
  0
LINE
  5
6ABE
100
AcDbEntity
  8
MSL-90-P25-R-0
 48
2.0
100
AcDbLine
 10
928.470025
 20
1245.341523
 30
0.0
 11
928.718356
 21
1245.341523
 31
0.0
1001
ACAD
1000
RTLwPs
1070
   128
  0
LINE
  5
6ABF
100
AcDbEntity
  8
MSL-90-P25-R-0
 48
2.0
100
AcDbLine
 10
928.718356
 20
1246.341523
 30
0.0
 11
928.718356
 21
1245.589854
 31
0.0
1001
ACAD
1000
RTLwPs
1070
   128
  0
LINE
  5
6AC0
100
AcDbEntity
  8
MSL-90-P25-R-0
 48
2.0
100
AcDbLine
 10
929.718356
 20
1246.341523
 30
0.0
 11
928.718356
 21
1246.341523
 31
0.0
1001
ACAD
1000
RTLwPs
1070
   128
  0
LINE
  5
6AC1
100
AcDbEntity
  8
MSL-90-P25-R-0
 48
2.0
100
AcDbLine
 10
926.716192
 20
1249.341523
 30
0.0
 11
918.218356
 21
1249.341523
 31
0.0
1001
ACAD
1000
RTLwPs
1070
   128
  0
LINE
  5
6AC2
100
AcDbEntity
  8
MSL-90-P25-R-0
 48
2.0
100
AcDbLine
 10
918.218356
 20
1248.341637
 30
0.0
 11
929.218356
 21
1248.340801
 31
0.0
1001
ACAD
1000
RTLwPs
1070
   128
  0
POLYLINE
  5
6AC3
100
AcDbEntity
  8
MSL-90-P25-R-0
 48
2.0
100
AcDb2dPolyline
 66
     1
 10
0.0
 20
0.0
 30
0.0
  0
VERTEX
  5
6AC4
100
AcDbEntity
  8
MSL-90-P25-R-0
 48
2.0
100
AcDbVertex
100
AcDb2dVertex
 10
926.716192
 20
1254.341523
 30
0.0
  0
VERTEX
  5
6AC5
100
AcDbEntity
  8
MSL-90-P25-R-0
 48
2.0
100
AcDbVertex
100
AcDb2dVertex
 10
926.716192
 20
1248.841523
 30
0.0
  0
SEQEND
  5
6AC6
100
AcDbEntity
  8
MSL-90-P25-R-0
 48
2.0
  0
LINE
  5
6AC7
100
AcDbEntity
  8
MSL-90-P25-R-5
 48
2.0
100
AcDbLine
 10
936.218356
 20
1247.841523
 30
0.0
 11
930.716192
 21
1247.841523
 31
0.0
  0
POLYLINE
  5
6AC8
100
AcDbEntity
  8
MSL-90-P25-R-0
 48
2.0
100
AcDb2dPolyline
 66
     1
 10
0.0
 20
0.0
 30
0.0
  0
VERTEX
  5
6AC9
100
AcDbEntity
  8
MSL-90-P25-R-0
 48
2.0
100
AcDbVertex
100
AcDb2dVertex
 10
930.716192
 20
1254.341523
 30
0.0
  0
VERTEX
  5
6ACA
100
AcDbEntity
  8
MSL-90-P25-R-0
 48
2.0
100
AcDbVertex
100
AcDb2dVertex
 10
930.716192
 20
1247.841523
 30
0.0
  0
VERTEX
  5
6ACB
100
AcDbEntity
  8
MSL-90-P25-R-0
 48
2.0
100
AcDbVertex
100
AcDb2dVertex
 10
931.216192
 20
1247.341523
 30
0.0
  0
VERTEX
  5
6ACC
100
AcDbEntity
  8
MSL-90-P25-R-0
 48
2.0
100
AcDbVertex
100
AcDb2dVertex
 10
936.218356
 20
1247.341523
 30
0.0
  0
SEQEND
  5
6ACD
100
AcDbEntity
  8
MSL-90-P25-R-0
 48
2.0
  0
LINE
  5
6ACE
100
AcDbEntity
  8
MSL-90-P25-R-0
 48
2.0
100
AcDbLine
 10
934.418356
 20
1239.249
 30
0.0
 11
936.218356
 21
1239.249
 31
0.0
  0
LINE
  5
6ACF
100
AcDbEntity
  8
MSL-90-P25-R-0
 48
2.0
100
AcDbLine
 10
938.966192
 20
1235.063211
 30
0.0
 11
940.216192
 21
1235.784899
 31
0.0
1001
ACAD
1000
RTLwPs
1070
   128
  0
LINE
  5
6AD0
100
AcDbEntity
  8
MSL-90-P25-R-0
 48
2.0
100
AcDbLine
 10
938.966192
 20
1233.619835
 30
0.0
 11
938.966192
 21
1235.063211
 31
0.0
1001
ACAD
1000
RTLwPs
1070
   128
  0
LINE
  5
6AD1
100
AcDbEntity
  8
MSL-90-P25-R-0
 48
2.0
100
AcDbLine
 10
941.466192
 20
1233.619835
 30
0.0
 11
940.216192
 21
1232.898147
 31
0.0
1001
ACAD
1000
RTLwPs
1070
   128
  0
LINE
  5
6AD2
100
AcDbEntity
  8
MSL-90-P25-R-0
 48
2.0
100
AcDbLine
 10
940.216192
 20
1232.898147
 30
0.0
 11
938.966192
 21
1233.619835
 31
0.0
1001
ACAD
1000
RTLwPs
1070
   128
  0
LINE
  5
6AD3
100
AcDbEntity
  8
MSL-90-P25-R-0
 48
2.0
100
AcDbLine
 10
941.466192
 20
1235.063211
 30
0.0
 11
941.466192
 21
1233.619835
 31
0.0
1001
ACAD
1000
RTLwPs
1070
   128
  0
LINE
  5
6AD4
100
AcDbEntity
  8
MSL-90-P25-R-0
 48
2.0
100
AcDbLine
 10
940.216192
 20
1235.784899
 30
0.0
 11
941.466192
 21
1235.063211
 31
0.0
1001
ACAD
1000
RTLwPs
1070
   128
  0
LINE
  5
6AD5
100
AcDbEntity
  8
MSL-90-P25-R-0
 48
2.0
100
AcDbLine
 10
934.418356
 20
1229.434046
 30
0.0
 11
936.218356
 21
1229.434046
 31
0.0
  0
LINE
  5
6AD6
100
AcDbEntity
  8
MSL-90-P25-R-0
 48
2.0
100
AcDbLine
 10
933.218356
 20
1239.970688
 30
0.0
 11
933.218356
 21
1228.712358
 31
0.0
  0
ARC
  5
6AD7
100
AcDbEntity
  8
MSL-90-P25-R-0
 48
2.0
100
AcDbCircle
 10
943.853078
 20
1234.341523
 30
0.0
 40
10.634722
100
AcDbArc
 50
152.518771
 51
207.481229
  0
ARC
  5
6AD8
100
AcDbEntity
  8
MSL-90-P25-R-5
 48
2.0
100
AcDbCircle
 10
940.216192
 20
1234.341523
 30
0.0
 40
2.5
100
AcDbArc
 50
255.0
 51
195.0
1001
ACAD
1000
RTLwPs
1070
   128
  0
CIRCLE
  5
6AD9
100
AcDbEntity
  8
MSL-90-P25-R-0
 48
2.0
100
AcDbCircle
 10
940.216192
 20
1234.341523
 30
0.0
 40
2.1
1001
ACAD
1000
RTLwPs
1070
   128
  0
ARC
  5
6ADA
100
AcDbEntity
  8
MSL-90-P25-R-0
 48
2.0
100
AcDbCircle
 10
936.327036
 20
1241.702739
 30
0.0
 40
3.108681
100
AcDbArc
 50
127.878142
 51
232.121858
  0
LINE
  5
6ADB
100
AcDbEntity
  8
MSL-90-P25-R-5
 48
2.0
100
AcDbLine
 10
906.716192
 20
1254.341523
 30
0.0
 11
906.716192
 21
1250.01544
 31
0.0
  0
POLYLINE
  5
6ADC
100
AcDbEntity
  8
MSL-90-P25-R-0
 48
2.0
100
AcDb2dPolyline
 66
     1
 10
0.0
 20
0.0
 30
0.0
  0
VERTEX
  5
6ADD
100
AcDbEntity
  8
MSL-90-P25-R-0
 48
2.0
100
AcDbVertex
100
AcDb2dVertex
 10
902.716192
 20
1254.341523
 30
0.0
  0
VERTEX
  5
6ADE
100
AcDbEntity
  8
MSL-90-P25-R-0
 48
2.0
100
AcDbVertex
100
AcDb2dVertex
 10
902.716192
 20
1248.341523
 30
0.0
  0
SEQEND
  5
6ADF
100
AcDbEntity
  8
MSL-90-P25-R-0
 48
2.0
  0
POLYLINE
  5
6AE0
100
AcDbEntity
  8
MSL-90-P25-R-0
 48
2.0
100
AcDb2dPolyline
 66
     1
 10
0.0
 20
0.0
 30
0.0
  0
VERTEX
  5
6AE1
100
AcDbEntity
  8
MSL-90-P25-R-0
 48
2.0
100
AcDbVertex
100
AcDb2dVertex
 10
910.216192
 20
1254.341523
 30
0.0
  0
VERTEX
  5
6AE2
100
AcDbEntity
  8
MSL-90-P25-R-0
 48
2.0
100
AcDbVertex
100
AcDb2dVertex
 10
910.216192
 20
1249.591523
 30
0.0
  0
SEQEND
  5
6AE3
100
AcDbEntity
  8
MSL-90-P25-R-0
 48
2.0
  0
LINE
  5
6AE4
100
AcDbEntity
  8
MSL-90-P25-R-0
 48
2.0
100
AcDbLine
 10
900.216192
 20
1256.591523
 30
0.0
 11
899.716192
 21
1256.091523
 31
0.0
  0
POLYLINE
  5
6AE5
100
AcDbEntity
  8
MSL-90-P25-R-0
 48
2.0
100
AcDb2dPolyline
 66
     1
 10
0.0
 20
0.0
 30
0.0
  0
VERTEX
  5
6AE6
100
AcDbEntity
  8
MSL-90-P25-R-0
 48
2.0
100
AcDbVertex
100
AcDb2dVertex
 10
899.716192
 20
1252.591523
 30
0.0
  0
VERTEX
  5
6AE7
100
AcDbEntity
  8
MSL-90-P25-R-0
 48
2.0
100
AcDbVertex
100
AcDb2dVertex
 10
899.716192
 20
1256.091523
 30
0.0
  0
SEQEND
  5
6AE8
100
AcDbEntity
  8
MSL-90-P25-R-0
 48
2.0
  0
LINE
  5
6AE9
100
AcDbEntity
  8
MSL-90-P25-R-0
 48
2.0
100
AcDbLine
 10
900.216192
 20
1252.091523
 30
0.0
 11
899.716192
 21
1252.591523
 31
0.0
  0
POLYLINE
  5
6AEA
100
AcDbEntity
  8
MSL-90-P25-R-0
 48
2.0
100
AcDb2dPolyline
 66
     1
 10
0.0
 20
0.0
 30
0.0
  0
VERTEX
  5
6AEB
100
AcDbEntity
  8
MSL-90-P25-R-0
 48
2.0
100
AcDbVertex
100
AcDb2dVertex
 10
900.216192
 20
1254.341523
 30
0.0
  0
VERTEX
  5
6AEC
100
AcDbEntity
  8
MSL-90-P25-R-0
 48
2.0
100
AcDbVertex
100
AcDb2dVertex
 10
900.216192
 20
1250.841523
 30
0.0
  0
VERTEX
  5
6AED
100
AcDbEntity
  8
MSL-90-P25-R-0
 48
2.0
100
AcDbVertex
100
AcDb2dVertex
 10
902.716192
 20
1248.341523
 30
0.0
  0
VERTEX
  5
6AEE
100
AcDbEntity
  8
MSL-90-P25-R-0
 48
2.0
100
AcDbVertex
100
AcDb2dVertex
 10
906.716192
 20
1248.341523
 30
0.0
  0
VERTEX
  5
6AEF
100
AcDbEntity
  8
MSL-90-P25-R-0
 48
2.0
100
AcDbVertex
100
AcDb2dVertex
 10
906.716192
 20
1249.091523
 30
0.0
 42
-0.414214
  0
VERTEX
  5
6AF0
100
AcDbEntity
  8
MSL-90-P25-R-0
 48
2.0
100
AcDbVertex
100
AcDb2dVertex
 10
907.216192
 20
1249.591523
 30
0.0
  0
VERTEX
  5
6AF1
100
AcDbEntity
  8
MSL-90-P25-R-0
 48
2.0
100
AcDbVertex
100
AcDb2dVertex
 10
910.216192
 20
1249.591523
 30
0.0
  0
VERTEX
  5
6AF2
100
AcDbEntity
  8
MSL-90-P25-R-0
 48
2.0
100
AcDbVertex
100
AcDb2dVertex
 10
910.716192
 20
1250.091523
 30
0.0
  0
VERTEX
  5
6AF3
100
AcDbEntity
  8
MSL-90-P25-R-0
 48
2.0
100
AcDbVertex
100
AcDb2dVertex
 10
910.716192
 20
1254.341523
 30
0.0
  0
SEQEND
  5
6AF4
100
AcDbEntity
  8
MSL-90-P25-R-0
 48
2.0
  0
POLYLINE
  5
6AF5
100
AcDbEntity
  8
MSL-90-P25-R-0
 48
2.0
100
AcDb2dPolyline
 66
     1
 10
0.0
 20
0.0
 30
0.0
  0
VERTEX
  5
6AF6
100
AcDbEntity
  8
MSL-90-P25-R-0
 48
2.0
100
AcDbVertex
100
AcDb2dVertex
 10
910.716192
 20
1252.341523
 30
0.0
  0
VERTEX
  5
6AF7
100
AcDbEntity
  8
MSL-90-P25-R-0
 48
2.0
100
AcDbVertex
100
AcDb2dVertex
 10
926.716192
 20
1252.341523
 30
0.0
  0
SEQEND
  5
6AF8
100
AcDbEntity
  8
MSL-90-P25-R-0
 48
2.0
  0
POLYLINE
  5
6AF9
100
AcDbEntity
  8
MSL-90-P25-R-0
 48
2.0
100
AcDb2dPolyline
 66
     1
 10
0.0
 20
0.0
 30
0.0
  0
VERTEX
  5
6AFA
100
AcDbEntity
  8
MSL-90-P25-R-0
 48
2.0
100
AcDbVertex
100
AcDb2dVertex
 10
910.716192
 20
1256.341523
 30
0.0
  0
VERTEX
  5
6AFB
100
AcDbEntity
  8
MSL-90-P25-R-0
 48
2.0
100
AcDbVertex
100
AcDb2dVertex
 10
926.716192
 20
1256.341523
 30
0.0
  0
SEQEND
  5
6AFC
100
AcDbEntity
  8
MSL-90-P25-R-0
 48
2.0
  0
POLYLINE
  5
6AFD
100
AcDbEntity
  8
MSL-90-P25-R-0
 48
2.0
100
AcDb2dPolyline
 66
     1
 10
0.0
 20
0.0
 30
0.0
  0
VERTEX
  5
6AFE
100
AcDbEntity
  8
MSL-90-P25-R-0
 48
2.0
100
AcDbVertex
100
AcDb2dVertex
 10
930.716192
 20
1254.341523
 30
0.0
  0
VERTEX
  5
6AFF
100
AcDbEntity
  8
MSL-90-P25-R-0
 48
2.0
100
AcDbVertex
100
AcDb2dVertex
 10
930.716192
 20
1260.841523
 30
0.0
  0
VERTEX
  5
6B00
100
AcDbEntity
  8
MSL-90-P25-R-0
 48
2.0
100
AcDbVertex
100
AcDb2dVertex
 10
931.216192
 20
1261.341523
 30
0.0
  0
VERTEX
  5
6B01
100
AcDbEntity
  8
MSL-90-P25-R-0
 48
2.0
100
AcDbVertex
100
AcDb2dVertex
 10
936.218356
 20
1261.341523
 30
0.0
  0
SEQEND
  5
6B02
100
AcDbEntity
  8
MSL-90-P25-R-0
 48
2.0
  0
POLYLINE
  5
6B03
100
AcDbEntity
  8
MSL-90-P25-R-0
 48
2.0
100
AcDb2dPolyline
 66
     1
 10
0.0
 20
0.0
 30
0.0
  0
VERTEX
  5
6B04
100
AcDbEntity
  8
MSL-90-P25-R-0
 48
2.0
100
AcDbVertex
100
AcDb2dVertex
 10
900.216192
 20
1254.341523
 30
0.0
  0
VERTEX
  5
6B05
100
AcDbEntity
  8
MSL-90-P25-R-0
 48
2.0
100
AcDbVertex
100
AcDb2dVertex
 10
900.216192
 20
1257.841523
 30
0.0
  0
VERTEX
  5
6B06
100
AcDbEntity
  8
MSL-90-P25-R-0
 48
2.0
100
AcDbVertex
100
AcDb2dVertex
 10
902.716192
 20
1260.341523
 30
0.0
  0
VERTEX
  5
6B07
100
AcDbEntity
  8
MSL-90-P25-R-0
 48
2.0
100
AcDbVertex
100
AcDb2dVertex
 10
906.716192
 20
1260.341523
 30
0.0
  0
VERTEX
  5
6B08
100
AcDbEntity
  8
MSL-90-P25-R-0
 48
2.0
100
AcDbVertex
100
AcDb2dVertex
 10
906.716192
 20
1259.591523
 30
0.0
 42
0.414214
  0
VERTEX
  5
6B09
100
AcDbEntity
  8
MSL-90-P25-R-0
 48
2.0
100
AcDbVertex
100
AcDb2dVertex
 10
907.216192
 20
1259.091523
 30
0.0
  0
VERTEX
  5
6B0A
100
AcDbEntity
  8
MSL-90-P25-R-0
 48
2.0
100
AcDbVertex
100
AcDb2dVertex
 10
910.216192
 20
1259.091523
 30
0.0
  0
VERTEX
  5
6B0B
100
AcDbEntity
  8
MSL-90-P25-R-0
 48
2.0
100
AcDbVertex
100
AcDb2dVertex
 10
910.716192
 20
1258.591523
 30
0.0
  0
VERTEX
  5
6B0C
100
AcDbEntity
  8
MSL-90-P25-R-0
 48
2.0
100
AcDbVertex
100
AcDb2dVertex
 10
910.716192
 20
1254.341523
 30
0.0
  0
SEQEND
  5
6B0D
100
AcDbEntity
  8
MSL-90-P25-R-0
 48
2.0
  0
POLYLINE
  5
6B0E
100
AcDbEntity
  8
MSL-90-P25-R-0
 48
2.0
100
AcDb2dPolyline
 66
     1
 10
0.0
 20
0.0
 30
0.0
  0
VERTEX
  5
6B0F
100
AcDbEntity
  8
MSL-90-P25-R-0
 48
2.0
100
AcDbVertex
100
AcDb2dVertex
 10
910.216192
 20
1254.341523
 30
0.0
  0
VERTEX
  5
6B10
100
AcDbEntity
  8
MSL-90-P25-R-0
 48
2.0
100
AcDbVertex
100
AcDb2dVertex
 10
910.216192
 20
1259.091523
 30
0.0
  0
SEQEND
  5
6B11
100
AcDbEntity
  8
MSL-90-P25-R-0
 48
2.0
  0
POLYLINE
  5
6B12
100
AcDbEntity
  8
MSL-90-P25-R-0
 48
2.0
100
AcDb2dPolyline
 66
     1
 10
0.0
 20
0.0
 30
0.0
  0
VERTEX
  5
6B13
100
AcDbEntity
  8
MSL-90-P25-R-0
 48
2.0
100
AcDbVertex
100
AcDb2dVertex
 10
902.716192
 20
1254.341523
 30
0.0
  0
VERTEX
  5
6B14
100
AcDbEntity
  8
MSL-90-P25-R-0
 48
2.0
100
AcDbVertex
100
AcDb2dVertex
 10
902.716192
 20
1260.341523
 30
0.0
  0
SEQEND
  5
6B15
100
AcDbEntity
  8
MSL-90-P25-R-0
 48
2.0
  0
LINE
  5
6B16
100
AcDbEntity
  8
MSL-90-P25-R-5
 48
2.0
100
AcDbLine
 10
906.716192
 20
1254.341523
 30
0.0
 11
906.716192
 21
1258.667606
 31
0.0
  0
LINE
  5
6B17
100
AcDbEntity
  8
MSL-90-P25-R-0
 48
2.0
100
AcDbLine
 10
931.216192
 20
1247.341523
 30
0.0
 11
931.216192
 21
1261.341523
 31
0.0
  0
POLYLINE
  5
6B18
100
AcDbEntity
  8
MSL-90-P25-R-0
 48
2.0
100
AcDb2dPolyline
 66
     1
 10
0.0
 20
0.0
 30
0.0
  0
VERTEX
  5
6B19
100
AcDbEntity
  8
MSL-90-P25-R-0
 48
2.0
100
AcDbVertex
100
AcDb2dVertex
 10
927.716192
 20
1248.841523
 30
0.0
  0
VERTEX
  5
6B1A
100
AcDbEntity
  8
MSL-90-P25-R-0
 48
2.0
100
AcDbVertex
100
AcDb2dVertex
 10
927.716192
 20
1259.841523
 30
0.0
  0
SEQEND
  5
6B1B
100
AcDbEntity
  8
MSL-90-P25-R-0
 48
2.0
  0
POLYLINE
  5
6B1C
100
AcDbEntity
  8
MSL-90-P25-R-0
 48
2.0
100
AcDb2dPolyline
 66
     1
 10
0.0
 20
0.0
 30
0.0
  0
VERTEX
  5
6B1D
100
AcDbEntity
  8
MSL-90-P25-R-0
 48
2.0
100
AcDbVertex
100
AcDb2dVertex
 10
926.716192
 20
1254.341523
 30
0.0
  0
VERTEX
  5
6B1E
100
AcDbEntity
  8
MSL-90-P25-R-0
 48
2.0
100
AcDbVertex
100
AcDb2dVertex
 10
926.716192
 20
1259.841523
 30
0.0
  0
SEQEND
  5
6B1F
100
AcDbEntity
  8
MSL-90-P25-R-0
 48
2.0
  0
LINE
  5
6B20
100
AcDbEntity
  8
MSL-90-P25-R-0
 48
2.0
100
AcDbLine
 10
918.218356
 20
1279.341523
 30
0.0
 11
918.218356
 21
1256.341523
 31
0.0
1001
ACAD
1000
RTLwPs
1070
   128
  0
LINE
  5
6B21
100
AcDbEntity
  8
MSL-90-P25-R-0
 48
2.0
100
AcDbLine
 10
950.218356
 20
1276.341523
 30
0.0
 11
936.218356
 21
1276.341523
 31
0.0
1001
ACAD
1000
RTLwPs
1070
   128
  0
LINE
  5
6B22
100
AcDbEntity
  8
MSL-90-P25-R-0
 48
2.0
100
AcDbLine
 10
936.218356
 20
1279.341523
 30
0.0
 11
950.218356
 21
1279.341523
 31
0.0
1001
ACAD
1000
RTLwPs
1070
   128
  0
ARC
  5
6B23
100
AcDbEntity
  8
MSL-90-P25-R-0
 48
2.0
100
AcDbCircle
 10
830.654026
 20
1239.96644
 30
0.0
 40
2.562165
100
AcDbArc
 50
312.916662
 51
47.083338
  0
ARC
  5
6B24
100
AcDbEntity
  8
MSL-90-P25-R-0
 48
2.0
100
AcDbCircle
 10
824.193782
 20
1234.337275
 30
0.0
 40
9.02241
100
AcDbArc
 50
335.421502
 51
24.578498
  0
LINE
  5
6B25
100
AcDbEntity
  8
MSL-90-P25-R-0
 48
2.0
100
AcDbLine
 10
833.216191
 20
1239.96644
 30
0.0
 11
833.216191
 21
1228.70811
 31
0.0
  0
LINE
  5
6B26
100
AcDbEntity
  8
MSL-90-P25-R-0
 48
2.0
100
AcDbLine
 10
815.716192
 20
1284.091786
 30
0.0
 11
815.716192
 21
1283.091786
 31
0.0
1001
ACAD
1000
RTLwPs
1070
   128
  0
LINE
  5
6B27
100
AcDbEntity
  8
MSL-90-P25-R-0
 48
2.0
100
AcDbLine
 10
807.716192
 20
1284.341786
 30
0.0
 11
807.716192
 21
1283.841786
 31
0.0
1001
ACAD
1000
RTLwPs
1070
   128
  0
LINE
  5
6B28
100
AcDbEntity
  8
MSL-90-P25-R-0
 48
2.0
100
AcDbLine
 10
815.716192
 20
1283.091786
 30
0.0
 11
807.716192
 21
1283.091786
 31
0.0
1001
ACAD
1000
RTLwPs
1070
   128
  0
LINE
  5
6B29
100
AcDbEntity
  8
MSL-90-P25-R-0
 48
2.0
100
AcDbLine
 10
807.716192
 20
1284.091786
 30
0.0
 11
815.716192
 21
1284.091786
 31
0.0
1001
ACAD
1000
RTLwPs
1070
   128
  0
LINE
  5
6B2A
100
AcDbEntity
  8
MSL-90-P25-R-7A
 48
2.0
100
AcDbLine
 10
782.716192
 20
1262.341523
 30
0.0
 11
782.716192
 21
1271.341523
 31
0.0
  0
ARC
  5
6B2B
100
AcDbEntity
  8
MSL-90-P25-R-5
 48
2.0
100
AcDbCircle
 10
782.716192
 20
1266.841523
 30
0.0
 40
3.0
100
AcDbArc
 50
255.0
 51
195.0
1001
ACAD
1000
RTLwPs
1070
   128
  0
CIRCLE
  5
6B2C
100
AcDbEntity
  8
MSL-90-P25-R-0
 48
2.0
100
AcDbCircle
 10
782.716192
 20
1266.841523
 30
0.0
 40
2.5
1001
ACAD
1000
RTLwPs
1070
   128
  0
ARC
  5
6B2D
100
AcDbEntity
  8
MSL-90-P25-R-0
 48
2.0
100
AcDbCircle
 10
819.923136
 20
1239.970688
 30
0.0
 40
2.293056
100
AcDbArc
 50
305.085847
 51
54.914153
  0
LINE
  5
6B2E
100
AcDbEntity
  8
MSL-90-P25-R-0
 48
2.0
100
AcDbLine
 10
821.241191
 20
1241.847077
 30
0.0
 11
816.691191
 21
1241.847077
 31
0.0
  0
LINE
  5
6B2F
100
AcDbEntity
  8
MSL-90-P25-R-0
 48
2.0
100
AcDbLine
 10
821.241191
 20
1238.0943
 30
0.0
 11
816.691191
 21
1238.0943
 31
0.0
  0
LINE
  5
6B30
100
AcDbEntity
  8
MSL-90-P25-R-0
 48
2.0
100
AcDbLine
 10
829.216191
 20
1238.341523
 30
0.0
 11
822.216191
 21
1238.341523
 31
0.0
  0
LINE
  5
6B31
100
AcDbEntity
  8
MSL-90-P25-R-0
 48
2.0
100
AcDbLine
 10
821.241191
 20
1230.588746
 30
0.0
 11
816.691191
 21
1230.588746
 31
0.0
  0
LINE
  5
6B32
100
AcDbEntity
  8
MSL-90-P25-R-0
 48
2.0
100
AcDbLine
 10
822.216191
 20
1230.341523
 30
0.0
 11
829.216191
 21
1230.341523
 31
0.0
  0
LINE
  5
6B33
100
AcDbEntity
  8
MSL-90-P25-R-0
 48
2.0
100
AcDbLine
 10
822.216191
 20
1228.712358
 30
0.0
 11
822.216191
 21
1239.970688
 31
0.0
  0
ARC
  5
6B34
100
AcDbEntity
  8
MSL-90-P25-R-0
 48
2.0
100
AcDbCircle
 10
814.506469
 20
1234.341523
 30
0.0
 40
7.709722
100
AcDbArc
 50
330.872216
 51
29.127784
  0
LINE
  5
6B35
100
AcDbEntity
  8
MSL-90-P25-R-0
 48
2.0
100
AcDbLine
 10
815.716191
 20
1228.712358
 30
0.0
 11
815.716191
 21
1239.970688
 31
0.0
  0
LINE
  5
6B36
100
AcDbEntity
  8
MSL-90-P25-R-0
 48
2.0
100
AcDbLine
 10
815.716191
 20
1238.341523
 30
0.0
 11
815.716191
 21
1230.341523
 31
0.0
  0
ARC
  5
6B37
100
AcDbEntity
  8
MSL-90-P25-R-0
 48
2.0
100
AcDbCircle
 10
818.009247
 20
1239.970688
 30
0.0
 40
2.293056
100
AcDbArc
 50
125.085848
 51
234.914152
  0
ARC
  5
6B38
100
AcDbEntity
  8
MSL-90-P25-R-0
 48
2.0
100
AcDbCircle
 10
823.425914
 20
1234.341523
 30
0.0
 40
7.709722
100
AcDbArc
 50
150.872218
 51
209.127782
  0
LINE
  5
6B39
100
AcDbEntity
  8
MSL-90-P25-R-0
 48
2.0
100
AcDbLine
 10
807.716192
 20
1283.841786
 30
0.0
 11
807.716192
 21
1244.341786
 31
0.0
1001
ACAD
1000
RTLwPs
1070
   128
  0
LINE
  5
6B3A
100
AcDbEntity
  8
MSL-90-P25-R-0
 48
2.0
100
AcDbLine
 10
832.398691
 20
1230.584498
 30
0.0
 11
829.216191
 21
1230.584498
 31
0.0
  0
LINE
  5
6B3B
100
AcDbEntity
  8
MSL-90-P25-R-0
 48
2.0
100
AcDbLine
 10
832.398691
 20
1238.090052
 30
0.0
 11
829.216191
 21
1238.090052
 31
0.0
  0
LINE
  5
6B3C
100
AcDbEntity
  8
MSL-90-P25-R-0
 48
2.0
100
AcDbLine
 10
832.398691
 20
1241.842829
 30
0.0
 11
829.216191
 21
1241.842829
 31
0.0
  0
LINE
  5
6B3E
100
AcDbEntity
  8
MSL-90-P25-R-0
 48
2.0
100
AcDbLine
 10
937.218356
 20
1279.341523
 30
0.0
 11
816.216192
 21
1279.341786
 31
0.0
  0
LINE
  5
6B3F
100
AcDbEntity
  8
MSL-90-P25-R-7A
 48
2.0
100
AcDbLine
 10
897.221816
 20
1254.342638
 30
0.0
 11
1016.215493
 21
1254.339235
 31
0.0
  0
LINE
  5
6B40
100
AcDbEntity
  8
MSL-90-P25-R-5
 48
2.0
100
AcDbLine
 10
1007.718356
 20
1260.792039
 30
0.0
 11
955.218356
 21
1260.792039
 31
0.0
  0
LINE
  5
6B41
100
AcDbEntity
  8
MSL-90-P25-R-5
 48
2.0
100
AcDbLine
 10
1007.718356
 20
1247.792039
 30
0.0
 11
955.218356
 21
1247.792039
 31
0.0
  0
LINE
  5
6B42
100
AcDbEntity
  8
MSL-90-P25-R-0
 48
2.0
100
AcDbLine
 10
955.218356
 20
1247.292039
 30
0.0
 11
1007.218356
 21
1247.292039
 31
0.0
  0
LINE
  5
6B43
100
AcDbEntity
  8
MSL-90-P25-R-0
 48
2.0
100
AcDbLine
 10
955.218356
 20
1261.292039
 30
0.0
 11
1007.218356
 21
1261.292039
 31
0.0
  0
LINE
  5
6B44
100
AcDbEntity
  8
MSL-90-P25-R-0
 48
2.0
100
AcDbLine
 10
950.218356
 20
1226.841523
 30
0.0
 11
951.218356
 21
1227.109472
 31
0.0
1001
ACAD
1000
RTLwPs
1070
   128
  0
LINE
  5
6B45
100
AcDbEntity
  8
MSL-90-P25-R-0
 48
2.0
100
AcDbLine
 10
950.218356
 20
1192.341523
 30
0.0
 11
950.218356
 21
1189.341523
 31
0.0
1001
ACAD
1000
RTLwPs
1070
   128
  0
LINE
  5
6B46
100
AcDbEntity
  8
MSL-90-P25-R-0
 48
2.0
100
AcDbLine
 10
936.218356
 20
1224.541523
 30
0.0
 11
934.399284
 21
1224.541523
 31
0.0
  0
LINE
  5
6B47
100
AcDbEntity
  8
MSL-90-P25-R-0
 48
2.0
100
AcDbLine
 10
932.718356
 20
1222.755736
 30
0.0
 11
933.718356
 21
1222.341523
 31
0.0
1001
ACAD
1000
RTLwPs
1070
   128
  0
LINE
  5
6B48
100
AcDbEntity
  8
MSL-90-P25-R-0
 48
2.0
100
AcDbLine
 10
933.718356
 20
1225.289542
 30
0.0
 11
933.718356
 21
1222.341523
 31
0.0
1001
ACAD
1000
RTLwPs
1070
   128
  0
ARC
  5
6B49
100
AcDbEntity
  8
MSL-90-P25-R-0
 48
2.0
100
AcDbCircle
 10
923.218356
 20
1223.841523
 30
0.0
 40
0.9
100
AcDbArc
 50
303.748989
 51
326.251011
1001
ACAD
1000
RTLwPs
1070
   128
  0
LINE
  5
6B4A
100
AcDbEntity
  8
MSL-90-P25-R-0
 48
2.0
100
AcDbLine
 10
923.718356
 20
1224.341523
 30
0.0
 11
923.718356
 21
1224.589854
 31
0.0
1001
ACAD
1000
RTLwPs
1070
   128
  0
LINE
  5
6B4B
100
AcDbEntity
  8
MSL-90-P25-R-0
 48
2.0
100
AcDbLine
 10
923.718356
 20
1223.093191
 30
0.0
 11
923.718356
 21
1223.341523
 31
0.0
1001
ACAD
1000
RTLwPs
1070
   128
  0
LINE
  5
6B4C
100
AcDbEntity
  8
MSL-90-P25-R-0
 48
2.0
100
AcDbLine
 10
923.966688
 20
1223.341523
 30
0.0
 11
924.718356
 21
1223.341523
 31
0.0
1001
ACAD
1000
RTLwPs
1070
   128
  0
LINE
  5
6B4D
100
AcDbEntity
  8
MSL-90-P25-R-0
 48
2.0
100
AcDbLine
 10
924.718356
 20
1224.341523
 30
0.0
 11
923.966688
 21
1224.341523
 31
0.0
1001
ACAD
1000
RTLwPs
1070
   128
  0
LINE
  5
6B4E
100
AcDbEntity
  8
MSL-90-P25-R-0
 48
2.0
100
AcDbLine
 10
923.718356
 20
1222.341523
 30
0.0
 11
923.718356
 21
1223.093191
 31
0.0
1001
ACAD
1000
RTLwPs
1070
   128
  0
LINE
  5
6B4F
100
AcDbEntity
  8
MSL-90-P25-R-0
 48
2.0
100
AcDbLine
 10
923.718356
 20
1224.589854
 30
0.0
 11
923.718356
 21
1225.341523
 31
0.0
1001
ACAD
1000
RTLwPs
1070
   128
  0
LINE
  5
6B50
100
AcDbEntity
  8
MSL-90-P25-R-0
 48
2.0
100
AcDbLine
 10
923.966688
 20
1223.341523
 30
0.0
 11
923.718356
 21
1223.341523
 31
0.0
1001
ACAD
1000
RTLwPs
1070
   128
  0
ARC
  5
6B51
100
AcDbEntity
  8
MSL-90-P25-R-0
 48
2.0
100
AcDbCircle
 10
923.218356
 20
1223.841523
 30
0.0
 40
0.9
100
AcDbArc
 50
33.748989
 51
56.251011
1001
ACAD
1000
RTLwPs
1070
   128
  0
LINE
  5
6B52
100
AcDbEntity
  8
MSL-90-P25-R-0
 48
2.0
100
AcDbLine
 10
923.718356
 20
1224.341523
 30
0.0
 11
923.966688
 21
1224.341523
 31
0.0
1001
ACAD
1000
RTLwPs
1070
   128
  0
LINE
  5
6B53
100
AcDbEntity
  8
MSL-90-P25-R-0
 48
2.0
100
AcDbLine
 10
924.718356
 20
1223.341523
 30
0.0
 11
924.718356
 21
1224.341523
 31
0.0
1001
ACAD
1000
RTLwPs
1070
   128
  0
LINE
  5
6B54
100
AcDbEntity
  8
MSL-90-P25-R-0
 48
2.0
100
AcDbLine
 10
922.718356
 20
1223.341523
 30
0.0
 11
922.718356
 21
1223.093191
 31
0.0
1001
ACAD
1000
RTLwPs
1070
   128
  0
LINE
  5
6B55
100
AcDbEntity
  8
MSL-90-P25-R-0
 48
2.0
100
AcDbLine
 10
922.718356
 20
1223.093191
 30
0.0
 11
922.718356
 21
1222.341523
 31
0.0
1001
ACAD
1000
RTLwPs
1070
   128
  0
ARC
  5
6B56
100
AcDbEntity
  8
MSL-90-P25-R-0
 48
2.0
100
AcDbCircle
 10
923.218356
 20
1223.841523
 30
0.0
 40
0.9
100
AcDbArc
 50
213.748989
 51
236.251011
1001
ACAD
1000
RTLwPs
1070
   128
  0
LINE
  5
6B57
100
AcDbEntity
  8
MSL-90-P25-R-0
 48
2.0
100
AcDbLine
 10
922.718356
 20
1223.341523
 30
0.0
 11
922.470025
 21
1223.341523
 31
0.0
1001
ACAD
1000
RTLwPs
1070
   128
  0
LINE
  5
6B58
100
AcDbEntity
  8
MSL-90-P25-R-0
 48
2.0
100
AcDbLine
 10
922.718356
 20
1224.589854
 30
0.0
 11
922.718356
 21
1224.341523
 31
0.0
1001
ACAD
1000
RTLwPs
1070
   128
  0
ARC
  5
6B59
100
AcDbEntity
  8
MSL-90-P25-R-0
 48
2.0
100
AcDbCircle
 10
923.218356
 20
1223.841523
 30
0.0
 40
0.9
100
AcDbArc
 50
123.748989
 51
146.251011
1001
ACAD
1000
RTLwPs
1070
   128
  0
LINE
  5
6B5A
100
AcDbEntity
  8
MSL-90-P25-R-0
 48
2.0
100
AcDbLine
 10
922.470025
 20
1224.341523
 30
0.0
 11
921.718356
 21
1224.341523
 31
0.0
1001
ACAD
1000
RTLwPs
1070
   128
  0
LINE
  5
6B5B
100
AcDbEntity
  8
MSL-90-P25-R-0
 48
2.0
100
AcDbLine
 10
921.718356
 20
1224.341523
 30
0.0
 11
921.718356
 21
1223.341523
 31
0.0
1001
ACAD
1000
RTLwPs
1070
   128
  0
LINE
  5
6B5C
100
AcDbEntity
  8
MSL-90-P25-R-0
 48
2.0
100
AcDbLine
 10
921.718356
 20
1223.341523
 30
0.0
 11
922.470025
 21
1223.341523
 31
0.0
1001
ACAD
1000
RTLwPs
1070
   128
  0
LINE
  5
6B5D
100
AcDbEntity
  8
MSL-90-P25-R-0
 48
2.0
100
AcDbLine
 10
922.718356
 20
1225.341523
 30
0.0
 11
922.718356
 21
1224.589854
 31
0.0
1001
ACAD
1000
RTLwPs
1070
   128
  0
LINE
  5
6B5E
100
AcDbEntity
  8
MSL-90-P25-R-0
 48
2.0
100
AcDbLine
 10
922.470025
 20
1224.341523
 30
0.0
 11
922.718356
 21
1224.341523
 31
0.0
1001
ACAD
1000
RTLwPs
1070
   128
  0
LINE
  5
6B5F
100
AcDbEntity
  8
MSL-90-P25-R-0
 48
2.0
100
AcDbLine
 10
922.718356
 20
1222.341523
 30
0.0
 11
923.718356
 21
1222.341523
 31
0.0
1001
ACAD
1000
RTLwPs
1070
   128
  0
LINE
  5
6B60
100
AcDbEntity
  8
MSL-90-P25-R-0
 48
2.0
100
AcDbLine
 10
923.718356
 20
1225.341523
 30
0.0
 11
922.718356
 21
1225.341523
 31
0.0
1001
ACAD
1000
RTLwPs
1070
   128
  0
LINE
  5
6B61
100
AcDbEntity
  8
MSL-90-P25-R-0
 48
2.0
100
AcDbLine
 10
930.304143
 20
1220.341523
 30
0.0
 11
930.718356
 21
1219.341523
 31
0.0
1001
ACAD
1000
RTLwPs
1070
   128
  0
LINE
  5
6B62
100
AcDbEntity
  8
MSL-90-P25-R-0
 48
2.0
100
AcDbLine
 10
918.218356
 20
1220.341523
 30
0.0
 11
930.304143
 21
1220.341523
 31
0.0
1001
ACAD
1000
RTLwPs
1070
   128
  0
LINE
  5
6B63
100
AcDbEntity
  8
MSL-90-P25-R-0
 48
2.0
100
AcDbLine
 10
930.718356
 20
1219.341523
 30
0.0
 11
918.218356
 21
1219.341523
 31
0.0
1001
ACAD
1000
RTLwPs
1070
   128
  0
CIRCLE
  5
6B64
100
AcDbEntity
  8
MSL-90-P25-R-0
 48
2.0
100
AcDbCircle
 10
923.218356
 20
1223.841523
 30
0.0
 40
3.0
1001
ACAD
1000
RTLwPs
1070
   128
  0
CIRCLE
  5
6B65
100
AcDbEntity
  8
MSL-90-P25-R-0
 48
2.0
100
AcDbCircle
 10
923.218356
 20
1223.841523
 30
0.0
 40
3.2
1001
ACAD
1000
RTLwPs
1070
   128
  0
LINE
  5
6B66
100
AcDbEntity
  8
MSL-90-P25-R-0
 48
2.0
100
AcDbLine
 10
930.304143
 20
1220.341523
 30
0.0
 11
932.718356
 21
1222.755736
 31
0.0
1001
ACAD
1000
RTLwPs
1070
   128
  0
LINE
  5
6B67
100
AcDbEntity
  8
MSL-90-P25-R-0
 48
2.0
100
AcDbLine
 10
933.718356
 20
1222.341523
 30
0.0
 11
930.718356
 21
1219.341523
 31
0.0
1001
ACAD
1000
RTLwPs
1070
   128
  0
LINE
  5
6B68
100
AcDbEntity
  8
MSL-90-P25-R-0
 48
2.0
100
AcDbLine
 10
930.218356
 20
1207.841523
 30
0.0
 11
918.218356
 21
1207.841523
 31
0.0
1001
ACAD
1000
RTLwPs
1070
   128
  0
ARC
  5
6B69
100
AcDbEntity
  8
MSL-90-P25-R-0
 48
2.0
100
AcDbCircle
 10
930.218356
 20
1213.841523
 30
0.0
 40
6.0
100
AcDbArc
 50
270.0
 51
0.0
1001
ACAD
1000
RTLwPs
1070
   128
  0
LINE
  5
6B6A
100
AcDbEntity
  8
MSL-90-P25-R-0
 48
2.0
100
AcDbLine
 10
936.218356
 20
1189.341523
 30
0.0
 11
936.218356
 21
1192.341523
 31
0.0
1001
ACAD
1000
RTLwPs
1070
   128
  0
LINE
  5
6B6B
100
AcDbEntity
  8
MSL-90-P25-R-0
 48
2.0
100
AcDbLine
 10
936.218356
 20
1189.341523
 30
0.0
 11
919.718356
 21
1189.341523
 31
0.0
1001
ACAD
1000
RTLwPs
1070
   128
  0
LINE
  5
6B6C
100
AcDbEntity
  8
MSL-90-P25-R-0
 48
2.0
100
AcDbLine
 10
950.218356
 20
1189.341523
 30
0.0
 11
936.218356
 21
1189.341523
 31
0.0
1001
ACAD
1000
RTLwPs
1070
   128
  0
LINE
  5
6B6D
100
AcDbEntity
  8
MSL-90-P25-R-0
 48
2.0
100
AcDbLine
 10
936.218356
 20
1192.341523
 30
0.0
 11
950.218356
 21
1192.341523
 31
0.0
1001
ACAD
1000
RTLwPs
1070
   128
  0
LINE
  5
6B6E
100
AcDbEntity
  8
MSL-90-P25-R-0
 48
2.0
100
AcDbLine
 10
821.241191
 20
1226.83597
 30
0.0
 11
816.691191
 21
1226.83597
 31
0.0
  0
CIRCLE
  5
6B6F
100
AcDbEntity
  8
MSL-90-P25-R-0
 48
2.0
100
AcDbCircle
 10
782.716192
 20
1201.841523
 30
0.0
 40
2.5
1001
ACAD
1000
RTLwPs
1070
   128
  0
ARC
  5
6B70
100
AcDbEntity
  8
MSL-90-P25-R-5
 48
2.0
100
AcDbCircle
 10
782.716192
 20
1201.841523
 30
0.0
 40
3.0
100
AcDbArc
 50
255.0
 51
195.0
1001
ACAD
1000
RTLwPs
1070
   128
  0
LINE
  5
6B71
100
AcDbEntity
  8
MSL-90-P25-R-0
 48
2.0
100
AcDbLine
 10
807.716192
 20
1185.591786
 30
0.0
 11
815.716192
 21
1185.591786
 31
0.0
1001
ACAD
1000
RTLwPs
1070
   128
  0
LINE
  5
6B72
100
AcDbEntity
  8
MSL-90-P25-R-0
 48
2.0
100
AcDbLine
 10
807.716192
 20
1184.841786
 30
0.0
 11
807.716192
 21
1184.341786
 31
0.0
1001
ACAD
1000
RTLwPs
1070
   128
  0
LINE
  5
6B73
100
AcDbEntity
  8
MSL-90-P25-R-0
 48
2.0
100
AcDbLine
 10
815.716192
 20
1184.591786
 30
0.0
 11
807.716192
 21
1184.591786
 31
0.0
1001
ACAD
1000
RTLwPs
1070
   128
  0
LINE
  5
6B74
100
AcDbEntity
  8
MSL-90-P25-R-0
 48
2.0
100
AcDbLine
 10
815.716192
 20
1185.591786
 30
0.0
 11
815.716192
 21
1184.591786
 31
0.0
1001
ACAD
1000
RTLwPs
1070
   128
  0
LINE
  5
6B75
100
AcDbEntity
  8
MSL-90-P25-R-7A
 48
2.0
100
AcDbLine
 10
782.716192
 20
1197.341523
 30
0.0
 11
782.716192
 21
1206.341523
 31
0.0
  0
LINE
  5
6B76
100
AcDbEntity
  8
MSL-90-P25-R-0
 48
2.0
100
AcDbLine
 10
807.716192
 20
1224.341786
 30
0.0
 11
807.716192
 21
1184.841786
 31
0.0
1001
ACAD
1000
RTLwPs
1070
   128
  0
LINE
  5
6B77
100
AcDbEntity
  8
MSL-90-P25-R-0
 48
2.0
100
AcDbLine
 10
829.216191
 20
1226.831722
 30
0.0
 11
832.398691
 21
1226.831722
 31
0.0
  0
LINE
  5
6B79
100
AcDbEntity
  8
MSL-90-P25-R-0
 48
2.0
100
AcDbLine
 10
920.718356
 20
1189.341523
 30
0.0
 11
816.216192
 21
1189.341523
 31
0.0
  0
LINE
  5
6B7A
100
AcDbEntity
  8
MSL-90-P25-R-0
 48
2.0
100
AcDbLine
 10
918.218356
 20
1252.341523
 30
0.0
 11
918.218356
 21
1189.341523
 31
0.0
1001
ACAD
1000
RTLwPs
1070
   128
  0
ARC
  5
6B7B
100
AcDbEntity
  8
MSL-90-P25-R-0
 48
2.0
100
AcDbCircle
 10
936.327036
 20
1226.980307
 30
0.0
 40
3.108681
100
AcDbArc
 50
127.878142
 51
232.121858
  0
LINE
  5
6B7C
100
AcDbEntity
  8
MSL-90-P25-R-0
 48
2.0
100
AcDbLine
 10
936.218356
 20
1244.141523
 30
0.0
 11
936.218356
 21
1224.541523
 31
0.0
  0
LINE
  5
6B7D
100
AcDbEntity
  8
MSL-90-P25-R-0
 48
2.0
100
AcDbLine
 10
933.218356
 20
1241.702739
 30
0.0
 11
933.218356
 21
1226.980307
 31
0.0
  0
ARC
  5
6B7E
100
AcDbEntity
  8
MSL-90-P25-R-0
 48
2.0
100
AcDbCircle
 10
818.009247
 20
1228.712358
 30
0.0
 40
2.293056
100
AcDbArc
 50
125.085848
 51
234.914152
  0
ARC
  5
6B7F
100
AcDbEntity
  8
MSL-90-P25-R-0
 48
2.0
100
AcDbCircle
 10
819.923136
 20
1228.712358
 30
0.0
 40
2.293056
100
AcDbArc
 50
305.085847
 51
54.914153
  0
LINE
  5
6B80
100
AcDbEntity
  8
MSL-90-P25-R-0
 48
2.0
100
AcDbLine
 10
932.718356
 20
1222.755736
 30
0.0
 11
932.718356
 21
1245.927309
 31
0.0
1001
ACAD
1000
RTLwPs
1070
   128
  0
LINE
  5
6B81
100
AcDbEntity
  8
MSL-90-P25-R-0
 48
2.0
100
AcDbLine
 10
951.218356
 20
1241.573574
 30
0.0
 11
951.218356
 21
1227.109472
 31
0.0
1001
ACAD
1000
RTLwPs
1070
   128
  0
LINE
  5
6B82
100
AcDbEntity
  8
MSL-90-P25-R-0
 48
2.0
100
AcDbLine
 10
950.218356
 20
1276.341523
 30
0.0
 11
950.218356
 21
1192.341523
 31
0.0
1001
ACAD
1000
RTLwPs
1070
   128
  0
LINE
  5
6B83
100
AcDbEntity
  8
MSL-90-P25-R-0
 48
2.0
100
AcDbLine
 10
936.218356
 20
1276.341523
 30
0.0
 11
936.218356
 21
1192.341523
 31
0.0
1001
ACAD
1000
RTLwPs
1070
   128
  0
LINE
  5
6B84
100
AcDbEntity
  8
MSL-90-P25-R-0
 48
2.0
100
AcDbLine
 10
807.716192
 20
1224.341786
 30
0.0
 11
807.716192
 21
1244.341786
 31
0.0
1001
ACAD
1000
RTLwPs
1070
   128
  0
LINE
  5
6B85
100
AcDbEntity
  8
MSL-90-P25-R-0
 48
2.0
100
AcDbLine
 10
815.716192
 20
1185.591786
 30
0.0
 11
815.716192
 21
1283.091786
 31
0.0
1001
ACAD
1000
RTLwPs
1070
   128
  0
LINE
  5
6B86
100
AcDbEntity
  8
MSL-90-P25-R-0
 48
2.0
100
AcDbLine
 10
807.716192
 20
1244.341786
 30
0.0
 11
807.716192
 21
1224.341786
 31
0.0
1001
ACAD
1000
RTLwPs
1070
   128
  0
ARC
  5
6B87
100
AcDbEntity
  8
MSL-90-P25-R-0
 48
2.0
100
AcDbCircle
 10
830.654026
 20
1228.70811
 30
0.0
 40
2.562165
100
AcDbArc
 50
312.916662
 51
47.083338
  0
LINE
  5
6B88
100
AcDbEntity
  8
MSL-90-P25-R-0
 48
2.0
100
AcDbLine
 10
829.216191
 20
1241.842829
 30
0.0
 11
829.216191
 21
1226.831722
 31
0.0
  0
LINE
  5
6B89
100
AcDbEntity
  8
MSL-90-P25-R-7A
 48
2.0
100
AcDbLine
 10
757.716192
 20
1260.341523
 30
0.0
 11
757.716192
 21
1273.341523
 31
0.0
  0
CIRCLE
  5
6B8A
100
AcDbEntity
  8
MSL-90-P25-R-0
 48
2.0
100
AcDbCircle
 10
757.716192
 20
1266.841523
 30
0.0
 40
2.5
1001
ACAD
1000
RTLwPs
1070
   128
  0
ARC
  5
6B8B
100
AcDbEntity
  8
MSL-90-P25-R-5
 48
2.0
100
AcDbCircle
 10
757.716192
 20
1266.841523
 30
0.0
 40
3.0
100
AcDbArc
 50
255.0
 51
195.0
1001
ACAD
1000
RTLwPs
1070
   128
  0
CIRCLE
  5
6B8C
100
AcDbEntity
  8
MSL-90-P25-R-0
 48
2.0
100
AcDbCircle
 10
757.716192
 20
1266.841523
 30
0.0
 40
5.0
1001
ACAD
1000
RTLwPs
1070
   128
  0
LINE
  5
6B8D
100
AcDbEntity
  8
MSL-90-P25-R-7A
 48
2.0
100
AcDbLine
 10
732.716192
 20
1262.341523
 30
0.0
 11
732.716192
 21
1271.341523
 31
0.0
  0
ARC
  5
6B8E
100
AcDbEntity
  8
MSL-90-P25-R-5
 48
2.0
100
AcDbCircle
 10
732.716192
 20
1266.841523
 30
0.0
 40
3.0
100
AcDbArc
 50
255.0
 51
195.0
1001
ACAD
1000
RTLwPs
1070
   128
  0
CIRCLE
  5
6B8F
100
AcDbEntity
  8
MSL-90-P25-R-0
 48
2.0
100
AcDbCircle
 10
732.716192
 20
1266.841523
 30
0.0
 40
2.5
1001
ACAD
1000
RTLwPs
1070
   128
  0
LINE
  5
6B90
100
AcDbEntity
  8
MSL-90-P25-R-7A
 48
2.0
100
AcDbLine
 10
707.716192
 20
1260.341523
 30
0.0
 11
707.716192
 21
1273.341523
 31
0.0
  0
ARC
  5
6B91
100
AcDbEntity
  8
MSL-90-P25-R-5
 48
2.0
100
AcDbCircle
 10
707.716192
 20
1266.841523
 30
0.0
 40
3.0
100
AcDbArc
 50
255.0
 51
195.0
1001
ACAD
1000
RTLwPs
1070
   128
  0
CIRCLE
  5
6B92
100
AcDbEntity
  8
MSL-90-P25-R-0
 48
2.0
100
AcDbCircle
 10
707.716192
 20
1266.841523
 30
0.0
 40
2.5
1001
ACAD
1000
RTLwPs
1070
   128
  0
LINE
  5
6B93
100
AcDbEntity
  8
MSL-90-P25-R-7A
 48
2.0
100
AcDbLine
 10
682.716192
 20
1262.341523
 30
0.0
 11
682.716192
 21
1271.341523
 31
0.0
  0
LINE
  5
6B94
100
AcDbEntity
  8
MSL-90-P25-R-0
 48
2.0
100
AcDbLine
 10
657.716192
 20
1283.841786
 30
0.0
 11
657.716192
 21
1284.341786
 31
0.0
1001
ACAD
1000
RTLwPs
1070
   128
  0
ARC
  5
6B95
100
AcDbEntity
  8
MSL-90-P25-R-5
 48
2.0
100
AcDbCircle
 10
682.716192
 20
1266.841523
 30
0.0
 40
3.0
100
AcDbArc
 50
255.0
 51
195.0
1001
ACAD
1000
RTLwPs
1070
   128
  0
CIRCLE
  5
6B96
100
AcDbEntity
  8
MSL-90-P25-R-0
 48
2.0
100
AcDbCircle
 10
682.716192
 20
1266.841523
 30
0.0
 40
2.5
1001
ACAD
1000
RTLwPs
1070
   128
  0
LINE
  5
6B97
100
AcDbEntity
  8
MSL-90-P25-R-0
 48
2.0
100
AcDbLine
 10
657.716192
 20
1244.341786
 30
0.0
 11
657.716192
 21
1283.841786
 31
0.0
1001
ACAD
1000
RTLwPs
1070
   128
  0
LINE
  5
6B98
100
AcDbEntity
  8
MSL-90-P25-R-0
 48
2.0
100
AcDbLine
 10
649.716192
 20
1279.341523
 30
0.0
 11
647.216192
 21
1279.341523
 31
0.0
1001
ACAD
1000
RTLwPs
1070
   128
  0
LINE
  5
6B99
100
AcDbEntity
  8
MSL-90-P25-R-0
 48
2.0
100
AcDbLine
 10
650.216192
 20
1283.091786
 30
0.0
 11
650.216192
 21
1284.091786
 31
0.0
1001
ACAD
1000
RTLwPs
1070
   128
  0
LINE
  5
6B9A
100
AcDbEntity
  8
MSL-90-P25-R-0
 48
2.0
100
AcDbLine
 10
629.216192
 20
1276.341523
 30
0.0
 11
629.216192
 21
1279.341523
 31
0.0
1001
ACAD
1000
RTLwPs
1070
   128
  0
LINE
  5
6B9B
100
AcDbEntity
  8
MSL-90-P25-R-0
 48
2.0
100
AcDbLine
 10
629.216192
 20
1279.341523
 30
0.0
 11
647.216192
 21
1279.341523
 31
0.0
1001
ACAD
1000
RTLwPs
1070
   128
  0
LINE
  5
6B9C
100
AcDbEntity
  8
MSL-90-P25-R-5
 48
2.0
100
AcDbLine
 10
631.966192
 20
1388.909605
 30
0.0
 11
634.716192
 21
1388.909605
 31
0.0
  0
POLYLINE
  5
6B9D
100
AcDbEntity
  8
MSL-90-P25-R-0
 48
2.0
100
AcDb2dPolyline
 66
     1
 10
0.0
 20
0.0
 30
0.0
  0
VERTEX
  5
6B9E
100
AcDbEntity
  8
MSL-90-P25-R-0
 48
2.0
100
AcDbVertex
100
AcDb2dVertex
 10
638.716192
 20
1387.909605
 30
0.0
  0
VERTEX
  5
6B9F
100
AcDbEntity
  8
MSL-90-P25-R-0
 48
2.0
100
AcDbVertex
100
AcDb2dVertex
 10
637.716192
 20
1387.909605
 30
0.0
  0
VERTEX
  5
6BA0
100
AcDbEntity
  8
MSL-90-P25-R-0
 48
2.0
100
AcDbVertex
100
AcDb2dVertex
 10
634.716192
 20
1388.909605
 30
0.0
  0
SEQEND
  5
6BA1
100
AcDbEntity
  8
MSL-90-P25-R-0
 48
2.0
  0
LINE
  5
6BA2
100
AcDbEntity
  8
MSL-90-P25-R-0
 48
2.0
100
AcDbLine
 10
634.716192
 20
1260.841523
 30
0.0
 11
647.216192
 21
1260.841523
 31
0.0
1001
ACAD
1000
RTLwPs
1070
   128
  0
LINE
  5
6BA3
100
AcDbEntity
  8
MSL-90-P25-R-0
 48
2.0
100
AcDbLine
 10
647.216192
 20
1279.341523
 30
0.0
 11
647.216192
 21
1259.841523
 31
0.0
1001
ACAD
1000
RTLwPs
1070
   128
  0
LINE
  5
6BA4
100
AcDbEntity
  8
MSL-90-P25-R-0
 48
2.0
100
AcDbLine
 10
615.216192
 20
1279.341523
 30
0.0
 11
615.216192
 21
1276.341523
 31
0.0
1001
ACAD
1000
RTLwPs
1070
   128
  0
ARC
  5
6BA5
100
AcDbEntity
  8
MSL-90-P25-R-0
 48
2.0
100
AcDbCircle
 10
594.794905
 20
1258.443773
 30
0.0
 40
20.421821
100
AcDbArc
 50
0.414532
 51
12.435804
1001
ACAD
1000
RTLwPs
1070
   128
  0
LINE
  5
6BA6
100
AcDbEntity
  8
MSL-90-P25-R-0
 48
2.0
100
AcDbLine
 10
614.737588
 20
1262.841523
 30
0.0
 11
615.216192
 21
1262.841523
 31
0.0
1001
ACAD
1000
RTLwPs
1070
   128
  0
LINE
  5
6BA7
100
AcDbEntity
  8
MSL-90-P25-R-0
 48
2.0
100
AcDbLine
 10
610.216192
 20
1258.591523
 30
0.0
 11
610.216192
 21
1262.841523
 31
0.0
1001
ACAD
1000
RTLwPs
1070
   128
  0
ARC
  5
6BA8
100
AcDbEntity
  8
MSL-90-P25-R-0
 48
2.0
100
AcDbCircle
 10
630.651884
 20
1258.442151
 30
0.0
 40
20.436238
100
AcDbArc
 50
167.568452
 51
179.581213
1001
ACAD
1000
RTLwPs
1070
   128
  0
LINE
  5
6BA9
100
AcDbEntity
  8
MSL-90-P25-R-0
 48
2.0
100
AcDbLine
 10
610.216192
 20
1262.841523
 30
0.0
 11
610.694796
 21
1262.841523
 31
0.0
1001
ACAD
1000
RTLwPs
1070
   128
  0
LINE
  5
6BAA
100
AcDbEntity
  8
MSL-90-P25-R-0
 48
2.0
100
AcDbLine
 10
610.694796
 20
1262.841523
 30
0.0
 11
614.737588
 21
1262.841523
 31
0.0
1001
ACAD
1000
RTLwPs
1070
   128
  0
LINE
  5
6BAB
100
AcDbEntity
  8
MSL-90-P25-R-0
 48
2.0
100
AcDbLine
 10
615.216192
 20
1276.341523
 30
0.0
 11
629.216192
 21
1276.341523
 31
0.0
1001
ACAD
1000
RTLwPs
1070
   128
  0
LINE
  5
6BAC
100
AcDbEntity
  8
MSL-90-P25-R-0
 48
2.0
100
AcDbLine
 10
629.216192
 20
1279.341523
 30
0.0
 11
615.216192
 21
1279.341523
 31
0.0
1001
ACAD
1000
RTLwPs
1070
   128
  0
POLYLINE
  5
6BAD
100
AcDbEntity
  8
MSL-90-P25-R-0
 48
2.0
100
AcDb2dPolyline
 66
     1
 10
0.0
 20
0.0
 30
0.0
  0
VERTEX
  5
6BAE
100
AcDbEntity
  8
MSL-90-P25-R-0
 48
2.0
100
AcDbVertex
100
AcDb2dVertex
 10
649.716192
 20
1254.341523
 30
0.0
  0
VERTEX
  5
6BAF
100
AcDbEntity
  8
MSL-90-P25-R-0
 48
2.0
100
AcDbVertex
100
AcDb2dVertex
 10
649.716192
 20
1256.091523
 30
0.0
  0
SEQEND
  5
6BB0
100
AcDbEntity
  8
MSL-90-P25-R-0
 48
2.0
  0
LINE
  5
6BB1
100
AcDbEntity
  8
MSL-90-P25-R-0
 48
2.0
100
AcDbLine
 10
649.216192
 20
1252.091523
 30
0.0
 11
649.716192
 21
1252.591523
 31
0.0
  0
POLYLINE
  5
6BB2
100
AcDbEntity
  8
MSL-90-P25-R-0
 48
2.0
100
AcDb2dPolyline
 66
     1
 10
0.0
 20
0.0
 30
0.0
  0
VERTEX
  5
6BB3
100
AcDbEntity
  8
MSL-90-P25-R-0
 48
2.0
100
AcDbVertex
100
AcDb2dVertex
 10
649.716192
 20
1254.341523
 30
0.0
  0
VERTEX
  5
6BB4
100
AcDbEntity
  8
MSL-90-P25-R-0
 48
2.0
100
AcDbVertex
100
AcDb2dVertex
 10
649.716192
 20
1252.591523
 30
0.0
  0
SEQEND
  5
6BB5
100
AcDbEntity
  8
MSL-90-P25-R-0
 48
2.0
  0
LINE
  5
6BB6
100
AcDbEntity
  8
MSL-90-P25-R-0
 48
2.0
100
AcDbLine
 10
649.216192
 20
1256.591523
 30
0.0
 11
649.716192
 21
1256.091523
 31
0.0
  0
LINE
  5
6BB7
100
AcDbEntity
  8
MSL-90-P25-R-0
 48
2.0
100
AcDbLine
 10
643.716192
 20
1244.341523
 30
0.0
 11
643.716192
 21
1245.341523
 31
0.0
1001
ACAD
1000
RTLwPs
1070
   128
  0
POLYLINE
  5
6BB8
100
AcDbEntity
  8
MSL-90-P25-R-0
 48
2.0
100
AcDb2dPolyline
 66
     1
 10
0.0
 20
0.0
 30
0.0
  0
VERTEX
  5
6BB9
100
AcDbEntity
  8
MSL-90-P25-R-0
 48
2.0
100
AcDbVertex
100
AcDb2dVertex
 10
646.716192
 20
1254.341523
 30
0.0
  0
VERTEX
  5
6BBA
100
AcDbEntity
  8
MSL-90-P25-R-0
 48
2.0
100
AcDbVertex
100
AcDb2dVertex
 10
646.716192
 20
1248.341523
 30
0.0
  0
SEQEND
  5
6BBB
100
AcDbEntity
  8
MSL-90-P25-R-0
 48
2.0
  0
LINE
  5
6BBC
100
AcDbEntity
  8
MSL-90-P25-R-5
 48
2.0
100
AcDbLine
 10
642.716192
 20
1254.341523
 30
0.0
 11
642.716192
 21
1250.01544
 31
0.0
  0
LINE
  5
6BBD
100
AcDbEntity
  8
MSL-90-P25-R-0
 48
2.0
100
AcDbLine
 10
641.716192
 20
1243.341523
 30
0.0
 11
642.716192
 21
1243.341523
 31
0.0
1001
ACAD
1000
RTLwPs
1070
   128
  0
ARC
  5
6BBE
100
AcDbEntity
  8
MSL-90-P25-R-0
 48
2.0
100
AcDbCircle
 10
642.216192
 20
1244.841523
 30
0.0
 40
0.9
100
AcDbArc
 50
123.748989
 51
146.251011
1001
ACAD
1000
RTLwPs
1070
   128
  0
LINE
  5
6BBF
100
AcDbEntity
  8
MSL-90-P25-R-0
 48
2.0
100
AcDbLine
 10
642.716192
 20
1245.341523
 30
0.0
 11
642.716192
 21
1245.589854
 31
0.0
1001
ACAD
1000
RTLwPs
1070
   128
  0
LINE
  5
6BC0
100
AcDbEntity
  8
MSL-90-P25-R-0
 48
2.0
100
AcDbLine
 10
641.716192
 20
1245.589854
 30
0.0
 11
641.716192
 21
1245.341523
 31
0.0
1001
ACAD
1000
RTLwPs
1070
   128
  0
LINE
  5
6BC1
100
AcDbEntity
  8
MSL-90-P25-R-0
 48
2.0
100
AcDbLine
 10
641.716192
 20
1244.341523
 30
0.0
 11
641.716192
 21
1244.093191
 31
0.0
1001
ACAD
1000
RTLwPs
1070
   128
  0
LINE
  5
6BC2
100
AcDbEntity
  8
MSL-90-P25-R-0
 48
2.0
100
AcDbLine
 10
640.716192
 20
1244.341523
 30
0.0
 11
641.46786
 21
1244.341523
 31
0.0
1001
ACAD
1000
RTLwPs
1070
   128
  0
LINE
  5
6BC3
100
AcDbEntity
  8
MSL-90-P25-R-0
 48
2.0
100
AcDbLine
 10
641.46786
 20
1245.341523
 30
0.0
 11
640.716192
 21
1245.341523
 31
0.0
1001
ACAD
1000
RTLwPs
1070
   128
  0
LINE
  5
6BC4
100
AcDbEntity
  8
MSL-90-P25-R-0
 48
2.0
100
AcDbLine
 10
642.716192
 20
1246.341523
 30
0.0
 11
641.716192
 21
1246.341523
 31
0.0
1001
ACAD
1000
RTLwPs
1070
   128
  0
LINE
  5
6BC5
100
AcDbEntity
  8
MSL-90-P25-R-0
 48
2.0
100
AcDbLine
 10
641.716192
 20
1246.341523
 30
0.0
 11
641.716192
 21
1245.589854
 31
0.0
1001
ACAD
1000
RTLwPs
1070
   128
  0
LINE
  5
6BC6
100
AcDbEntity
  8
MSL-90-P25-R-0
 48
2.0
100
AcDbLine
 10
642.716192
 20
1245.589854
 30
0.0
 11
642.716192
 21
1246.341523
 31
0.0
1001
ACAD
1000
RTLwPs
1070
   128
  0
LINE
  5
6BC7
100
AcDbEntity
  8
MSL-90-P25-R-0
 48
2.0
100
AcDbLine
 10
641.716192
 20
1244.093191
 30
0.0
 11
641.716192
 21
1243.341523
 31
0.0
1001
ACAD
1000
RTLwPs
1070
   128
  0
LINE
  5
6BC8
100
AcDbEntity
  8
MSL-90-P25-R-0
 48
2.0
100
AcDbLine
 10
641.46786
 20
1245.341523
 30
0.0
 11
641.716192
 21
1245.341523
 31
0.0
1001
ACAD
1000
RTLwPs
1070
   128
  0
ARC
  5
6BC9
100
AcDbEntity
  8
MSL-90-P25-R-0
 48
2.0
100
AcDbCircle
 10
642.216192
 20
1244.841523
 30
0.0
 40
0.9
100
AcDbArc
 50
33.748989
 51
56.251011
1001
ACAD
1000
RTLwPs
1070
   128
  0
LINE
  5
6BCA
100
AcDbEntity
  8
MSL-90-P25-R-0
 48
2.0
100
AcDbLine
 10
642.716192
 20
1245.341523
 30
0.0
 11
642.964523
 21
1245.341523
 31
0.0
1001
ACAD
1000
RTLwPs
1070
   128
  0
LINE
  5
6BCB
100
AcDbEntity
  8
MSL-90-P25-R-0
 48
2.0
100
AcDbLine
 10
641.716192
 20
1244.341523
 30
0.0
 11
641.46786
 21
1244.341523
 31
0.0
1001
ACAD
1000
RTLwPs
1070
   128
  0
ARC
  5
6BCC
100
AcDbEntity
  8
MSL-90-P25-R-0
 48
2.0
100
AcDbCircle
 10
642.216192
 20
1244.841523
 30
0.0
 40
0.9
100
AcDbArc
 50
303.748989
 51
326.251011
1001
ACAD
1000
RTLwPs
1070
   128
  0
LINE
  5
6BCD
100
AcDbEntity
  8
MSL-90-P25-R-0
 48
2.0
100
AcDbLine
 10
642.716192
 20
1244.093191
 30
0.0
 11
642.716192
 21
1244.341523
 31
0.0
1001
ACAD
1000
RTLwPs
1070
   128
  0
LINE
  5
6BCE
100
AcDbEntity
  8
MSL-90-P25-R-0
 48
2.0
100
AcDbLine
 10
640.716192
 20
1245.341523
 30
0.0
 11
640.716192
 21
1244.341523
 31
0.0
1001
ACAD
1000
RTLwPs
1070
   128
  0
ARC
  5
6BCF
100
AcDbEntity
  8
MSL-90-P25-R-0
 48
2.0
100
AcDbCircle
 10
642.216192
 20
1244.841523
 30
0.0
 40
0.9
100
AcDbArc
 50
213.748989
 51
236.251011
1001
ACAD
1000
RTLwPs
1070
   128
  0
LINE
  5
6BD0
100
AcDbEntity
  8
MSL-90-P25-R-0
 48
2.0
100
AcDbLine
 10
642.964523
 20
1244.341523
 30
0.0
 11
642.716192
 21
1244.341523
 31
0.0
1001
ACAD
1000
RTLwPs
1070
   128
  0
LINE
  5
6BD1
100
AcDbEntity
  8
MSL-90-P25-R-0
 48
2.0
100
AcDbLine
 10
642.716192
 20
1243.341523
 30
0.0
 11
642.716192
 21
1244.093191
 31
0.0
1001
ACAD
1000
RTLwPs
1070
   128
  0
LINE
  5
6BD2
100
AcDbEntity
  8
MSL-90-P25-R-0
 48
2.0
100
AcDbLine
 10
632.716192
 20
1245.927309
 30
0.0
 11
634.130405
 21
1247.341523
 31
0.0
1001
ACAD
1000
RTLwPs
1070
   128
  0
LINE
  5
6BD3
100
AcDbEntity
  8
MSL-90-P25-R-0
 48
2.0
100
AcDbLine
 10
632.716192
 20
1247.341523
 30
0.0
 11
631.716192
 21
1246.341523
 31
0.0
1001
ACAD
1000
RTLwPs
1070
   128
  0
LINE
  5
6BD4
100
AcDbEntity
  8
MSL-90-P25-R-5
 48
2.0
100
AcDbLine
 10
629.216192
 20
1247.841523
 30
0.0
 11
634.716192
 21
1247.841523
 31
0.0
  0
LINE
  5
6BD5
100
AcDbEntity
  8
MSL-90-P25-R-0
 48
2.0
100
AcDbLine
 10
629.216192
 20
1244.141523
 30
0.0
 11
631.035264
 21
1244.141523
 31
0.0
  0
LINE
  5
6BD6
100
AcDbEntity
  8
MSL-90-P25-R-0
 48
2.0
100
AcDbLine
 10
632.716192
 20
1245.927309
 30
0.0
 11
631.716192
 21
1246.341523
 31
0.0
1001
ACAD
1000
RTLwPs
1070
   128
  0
LINE
  5
6BD7
100
AcDbEntity
  8
MSL-90-P25-R-0
 48
2.0
100
AcDbLine
 10
631.716192
 20
1243.393504
 30
0.0
 11
631.716192
 21
1246.341523
 31
0.0
1001
ACAD
1000
RTLwPs
1070
   128
  0
POLYLINE
  5
6BD8
100
AcDbEntity
  8
MSL-90-P25-R-0
 48
2.0
100
AcDb2dPolyline
 66
     1
 10
0.0
 20
0.0
 30
0.0
  0
VERTEX
  5
6BD9
100
AcDbEntity
  8
MSL-90-P25-R-0
 48
2.0
100
AcDbVertex
100
AcDb2dVertex
 10
638.716192
 20
1248.841523
 30
0.0
  0
VERTEX
  5
6BDA
100
AcDbEntity
  8
MSL-90-P25-R-0
 48
2.0
100
AcDbVertex
100
AcDb2dVertex
 10
637.716192
 20
1248.841523
 30
0.0
  0
VERTEX
  5
6BDB
100
AcDbEntity
  8
MSL-90-P25-R-0
 48
2.0
100
AcDbVertex
100
AcDb2dVertex
 10
634.716192
 20
1247.841523
 30
0.0
  0
SEQEND
  5
6BDC
100
AcDbEntity
  8
MSL-90-P25-R-0
 48
2.0
  0
POLYLINE
  5
6BDD
100
AcDbEntity
  8
MSL-90-P25-R-0
 48
2.0
100
AcDb2dPolyline
 66
     1
 10
0.0
 20
0.0
 30
0.0
  0
VERTEX
  5
6BDE
100
AcDbEntity
  8
MSL-90-P25-R-0
 48
2.0
100
AcDbVertex
100
AcDb2dVertex
 10
639.216192
 20
1254.341523
 30
0.0
  0
VERTEX
  5
6BDF
100
AcDbEntity
  8
MSL-90-P25-R-0
 48
2.0
100
AcDbVertex
100
AcDb2dVertex
 10
639.216192
 20
1249.591523
 30
0.0
  0
SEQEND
  5
6BE0
100
AcDbEntity
  8
MSL-90-P25-R-0
 48
2.0
  0
POLYLINE
  5
6BE1
100
AcDbEntity
  8
MSL-90-P25-R-0
 48
2.0
100
AcDb2dPolyline
 66
     1
 10
0.0
 20
0.0
 30
0.0
  0
VERTEX
  5
6BE2
100
AcDbEntity
  8
MSL-90-P25-R-0
 48
2.0
100
AcDbVertex
100
AcDb2dVertex
 10
637.716192
 20
1254.341523
 30
0.0
  0
VERTEX
  5
6BE3
100
AcDbEntity
  8
MSL-90-P25-R-0
 48
2.0
100
AcDbVertex
100
AcDb2dVertex
 10
637.716192
 20
1248.841523
 30
0.0
  0
SEQEND
  5
6BE4
100
AcDbEntity
  8
MSL-90-P25-R-0
 48
2.0
  0
POLYLINE
  5
6BE5
100
AcDbEntity
  8
MSL-90-P25-R-0
 48
2.0
100
AcDb2dPolyline
 66
     1
 10
0.0
 20
0.0
 30
0.0
  0
VERTEX
  5
6BE6
100
AcDbEntity
  8
MSL-90-P25-R-0
 48
2.0
100
AcDbVertex
100
AcDb2dVertex
 10
638.716192
 20
1254.341523
 30
0.0
  0
VERTEX
  5
6BE7
100
AcDbEntity
  8
MSL-90-P25-R-0
 48
2.0
100
AcDbVertex
100
AcDb2dVertex
 10
638.716192
 20
1248.841523
 30
0.0
  0
SEQEND
  5
6BE8
100
AcDbEntity
  8
MSL-90-P25-R-0
 48
2.0
  0
LINE
  5
6BE9
100
AcDbEntity
  8
MSL-90-P25-R-0
 48
2.0
100
AcDbLine
 10
636.216192
 20
1248.341523
 30
0.0
 11
647.216192
 21
1248.341523
 31
0.0
1001
ACAD
1000
RTLwPs
1070
   128
  0
POLYLINE
  5
6BEA
100
AcDbEntity
  8
MSL-90-P25-R-0
 48
2.0
100
AcDb2dPolyline
 66
     1
 10
0.0
 20
0.0
 30
0.0
  0
VERTEX
  5
6BEB
100
AcDbEntity
  8
MSL-90-P25-R-0
 48
2.0
100
AcDbVertex
100
AcDb2dVertex
 10
649.216192
 20
1254.341523
 30
0.0
  0
VERTEX
  5
6BEC
100
AcDbEntity
  8
MSL-90-P25-R-0
 48
2.0
100
AcDbVertex
100
AcDb2dVertex
 10
649.216192
 20
1250.841523
 30
0.0
  0
VERTEX
  5
6BED
100
AcDbEntity
  8
MSL-90-P25-R-0
 48
2.0
100
AcDbVertex
100
AcDb2dVertex
 10
646.716192
 20
1248.341523
 30
0.0
  0
VERTEX
  5
6BEE
100
AcDbEntity
  8
MSL-90-P25-R-0
 48
2.0
100
AcDbVertex
100
AcDb2dVertex
 10
642.716192
 20
1248.341523
 30
0.0
  0
VERTEX
  5
6BEF
100
AcDbEntity
  8
MSL-90-P25-R-0
 48
2.0
100
AcDbVertex
100
AcDb2dVertex
 10
642.716192
 20
1249.091523
 30
0.0
 42
0.414214
  0
VERTEX
  5
6BF0
100
AcDbEntity
  8
MSL-90-P25-R-0
 48
2.0
100
AcDbVertex
100
AcDb2dVertex
 10
642.216192
 20
1249.591523
 30
0.0
  0
VERTEX
  5
6BF1
100
AcDbEntity
  8
MSL-90-P25-R-0
 48
2.0
100
AcDbVertex
100
AcDb2dVertex
 10
639.216192
 20
1249.591523
 30
0.0
  0
VERTEX
  5
6BF2
100
AcDbEntity
  8
MSL-90-P25-R-0
 48
2.0
100
AcDbVertex
100
AcDb2dVertex
 10
638.716192
 20
1250.091523
 30
0.0
  0
VERTEX
  5
6BF3
100
AcDbEntity
  8
MSL-90-P25-R-0
 48
2.0
100
AcDbVertex
100
AcDb2dVertex
 10
638.716192
 20
1254.341523
 30
0.0
  0
SEQEND
  5
6BF4
100
AcDbEntity
  8
MSL-90-P25-R-0
 48
2.0
  0
LINE
  5
6BF5
100
AcDbEntity
  8
MSL-90-P25-R-0
 48
2.0
100
AcDbLine
 10
643.716192
 20
1245.341523
 30
0.0
 11
642.964523
 21
1245.341523
 31
0.0
1001
ACAD
1000
RTLwPs
1070
   128
  0
LINE
  5
6BF6
100
AcDbEntity
  8
MSL-90-P25-R-0
 48
2.0
100
AcDbLine
 10
642.964523
 20
1244.341523
 30
0.0
 11
643.716192
 21
1244.341523
 31
0.0
1001
ACAD
1000
RTLwPs
1070
   128
  0
LINE
  5
6BF7
100
AcDbEntity
  8
MSL-90-P25-R-0
 48
2.0
100
AcDbLine
 10
644.191193
 20
1238.0943
 30
0.0
 11
648.741193
 21
1238.0943
 31
0.0
  0
LINE
  5
6BF8
100
AcDbEntity
  8
MSL-90-P25-R-0
 48
2.0
100
AcDbLine
 10
644.191193
 20
1241.847077
 30
0.0
 11
648.741193
 21
1241.847077
 31
0.0
  0
ARC
  5
6BF9
100
AcDbEntity
  8
MSL-90-P25-R-0
 48
2.0
100
AcDbCircle
 10
645.509248
 20
1239.970688
 30
0.0
 40
2.293056
100
AcDbArc
 50
125.085847
 51
234.914153
  0
ARC
  5
6BFA
100
AcDbEntity
  8
MSL-90-P25-R-0
 48
2.0
100
AcDbCircle
 10
647.423137
 20
1239.970688
 30
0.0
 40
2.293056
100
AcDbArc
 50
305.085848
 51
54.914152
  0
LINE
  5
6BFB
100
AcDbEntity
  8
MSL-90-P25-R-0
 48
2.0
100
AcDbLine
 10
644.191193
 20
1230.588746
 30
0.0
 11
648.741193
 21
1230.588746
 31
0.0
  0
ARC
  5
6BFC
100
AcDbEntity
  8
MSL-90-P25-R-0
 48
2.0
100
AcDbCircle
 10
650.925915
 20
1234.341523
 30
0.0
 40
7.709722
100
AcDbArc
 50
150.872216
 51
209.127784
  0
LINE
  5
6BFD
100
AcDbEntity
  8
MSL-90-P25-R-0
 48
2.0
100
AcDbLine
 10
643.216193
 20
1228.712358
 30
0.0
 11
643.216193
 21
1239.970688
 31
0.0
  0
LINE
  5
6BFE
100
AcDbEntity
  8
MSL-90-P25-R-0
 48
2.0
100
AcDbLine
 10
649.716193
 20
1238.341523
 30
0.0
 11
649.716193
 21
1230.341523
 31
0.0
  0
LINE
  5
6BFF
100
AcDbEntity
  8
MSL-90-P25-R-0
 48
2.0
100
AcDbLine
 10
649.716193
 20
1228.712358
 30
0.0
 11
649.716193
 21
1239.970688
 31
0.0
  0
ARC
  5
6C00
100
AcDbEntity
  8
MSL-90-P25-R-0
 48
2.0
100
AcDbCircle
 10
642.00647
 20
1234.341523
 30
0.0
 40
7.709722
100
AcDbArc
 50
330.872218
 51
29.127782
  0
ARC
  5
6C01
100
AcDbEntity
  8
MSL-90-P25-R-0
 48
2.0
100
AcDbCircle
 10
634.778358
 20
1239.96644
 30
0.0
 40
2.562165
100
AcDbArc
 50
132.916662
 51
227.083338
  0
LINE
  5
6C02
100
AcDbEntity
  8
MSL-90-P25-R-0
 48
2.0
100
AcDbLine
 10
631.016192
 20
1239.249
 30
0.0
 11
629.216192
 21
1239.249
 31
0.0
  0
LINE
  5
6C03
100
AcDbEntity
  8
MSL-90-P25-R-0
 48
2.0
100
AcDbLine
 10
633.033693
 20
1238.090052
 30
0.0
 11
636.216193
 21
1238.090052
 31
0.0
  0
LINE
  5
6C04
100
AcDbEntity
  8
MSL-90-P25-R-0
 48
2.0
100
AcDbLine
 10
633.033693
 20
1241.842829
 30
0.0
 11
636.216193
 21
1241.842829
 31
0.0
  0
LINE
  5
6C05
100
AcDbEntity
  8
MSL-90-P25-R-0
 48
2.0
100
AcDbLine
 10
631.016192
 20
1229.434046
 30
0.0
 11
629.216192
 21
1229.434046
 31
0.0
  0
LINE
  5
6C06
100
AcDbEntity
  8
MSL-90-P25-R-0
 48
2.0
100
AcDbLine
 10
633.033693
 20
1230.584498
 30
0.0
 11
636.216193
 21
1230.584498
 31
0.0
  0
ARC
  5
6C07
100
AcDbEntity
  8
MSL-90-P25-R-0
 48
2.0
100
AcDbCircle
 10
641.238602
 20
1234.337275
 30
0.0
 40
9.02241
100
AcDbArc
 50
155.421502
 51
204.578498
  0
LINE
  5
6C08
100
AcDbEntity
  8
MSL-90-P25-R-0
 48
2.0
100
AcDbLine
 10
632.216193
 20
1239.96644
 30
0.0
 11
632.216193
 21
1228.70811
 31
0.0
  0
LINE
  5
6C09
100
AcDbEntity
  8
MSL-90-P25-R-0
 48
2.0
100
AcDbLine
 10
632.216192
 20
1228.712358
 30
0.0
 11
632.216192
 21
1239.970688
 31
0.0
  0
ARC
  5
6C0A
100
AcDbEntity
  8
MSL-90-P25-R-0
 48
2.0
100
AcDbCircle
 10
621.58147
 20
1234.341523
 30
0.0
 40
10.634722
100
AcDbArc
 50
332.518771
 51
27.481229
  0
LINE
  5
6C0B
100
AcDbEntity
  8
MSL-90-P25-R-5
 48
2.0
100
AcDbLine
 10
643.216193
 20
1231.091523
 30
0.0
 11
636.216193
 21
1231.091523
 31
0.0
  0
LINE
  5
6C0C
100
AcDbEntity
  8
MSL-90-P25-R-5
 48
2.0
100
AcDbLine
 10
643.216193
 20
1237.591523
 30
0.0
 11
636.216193
 21
1237.591523
 31
0.0
  0
LINE
  5
6C0D
100
AcDbEntity
  8
MSL-90-P25-R-0
 48
2.0
100
AcDbLine
 10
643.216193
 20
1230.341523
 30
0.0
 11
636.216193
 21
1230.341523
 31
0.0
  0
LINE
  5
6C0E
100
AcDbEntity
  8
MSL-90-P25-R-0
 48
2.0
100
AcDbLine
 10
636.216193
 20
1238.341523
 30
0.0
 11
643.216193
 21
1238.341523
 31
0.0
  0
ARC
  5
6C0F
100
AcDbEntity
  8
MSL-90-P25-R-0
 48
2.0
100
AcDbCircle
 10
642.216192
 20
1244.841523
 30
0.0
 40
3.2
100
AcDbArc
 50
290.648012
 51
250.658639
  0
ARC
  5
6C10
100
AcDbEntity
  8
MSL-90-P25-R-0
 48
2.0
100
AcDbCircle
 10
629.107512
 20
1241.702739
 30
0.0
 40
3.108681
100
AcDbArc
 50
307.878142
 51
52.121858
  0
CIRCLE
  5
6C11
100
AcDbEntity
  8
MSL-90-P25-R-0
 48
2.0
100
AcDbCircle
 10
642.216192
 20
1244.841523
 30
0.0
 40
3.0
1001
ACAD
1000
RTLwPs
1070
   128
  0
LINE
  5
6C12
100
AcDbEntity
  8
MSL-90-P25-R-0
 48
2.0
100
AcDbLine
 10
632.716192
 20
1245.927309
 30
0.0
 11
632.716192
 21
1241.487019
 31
0.0
1001
ACAD
1000
RTLwPs
1070
   128
  0
LINE
  5
6C13
100
AcDbEntity
  8
MSL-90-P25-R-0
 48
2.0
100
AcDbLine
 10
647.216192
 20
1248.841523
 30
0.0
 11
647.216192
 21
1241.847077
 31
0.0
  0
ARC
  5
6C14
100
AcDbEntity
  8
MSL-90-P25-R-0
 48
2.0
100
AcDbCircle
 10
594.7805
 20
1250.240894
 30
0.0
 40
20.436238
100
AcDbArc
 50
347.568452
 51
359.581213
1001
ACAD
1000
RTLwPs
1070
   128
  0
LINE
  5
6C15
100
AcDbEntity
  8
MSL-90-P25-R-0
 48
2.0
100
AcDbLine
 10
615.216192
 20
1245.841523
 30
0.0
 11
614.737588
 21
1245.841523
 31
0.0
1001
ACAD
1000
RTLwPs
1070
   128
  0
ARC
  5
6C16
100
AcDbEntity
  8
MSL-90-P25-R-0
 48
2.0
100
AcDbCircle
 10
594.794905
 20
1249.943773
 30
0.0
 40
20.421821
100
AcDbArc
 50
0.414532
 51
12.435804
1001
ACAD
1000
RTLwPs
1070
   128
  0
ARC
  5
6C17
100
AcDbEntity
  8
MSL-90-P25-R-0
 48
2.0
100
AcDbCircle
 10
630.637478
 20
1250.239272
 30
0.0
 40
20.421821
100
AcDbArc
 50
180.414532
 51
192.435804
1001
ACAD
1000
RTLwPs
1070
   128
  0
LINE
  5
6C18
100
AcDbEntity
  8
MSL-90-P25-R-0
 48
2.0
100
AcDbLine
 10
610.694796
 20
1245.841523
 30
0.0
 11
610.216192
 21
1245.841523
 31
0.0
1001
ACAD
1000
RTLwPs
1070
   128
  0
LINE
  5
6C19
100
AcDbEntity
  8
MSL-90-P25-R-0
 48
2.0
100
AcDbLine
 10
610.216192
 20
1245.841523
 30
0.0
 11
610.216192
 21
1250.091523
 31
0.0
1001
ACAD
1000
RTLwPs
1070
   128
  0
ARC
  5
6C1A
100
AcDbEntity
  8
MSL-90-P25-R-0
 48
2.0
100
AcDbCircle
 10
630.651884
 20
1249.942151
 30
0.0
 40
20.436238
100
AcDbArc
 50
167.568452
 51
179.581213
1001
ACAD
1000
RTLwPs
1070
   128
  0
LINE
  5
6C1B
100
AcDbEntity
  8
MSL-90-P25-R-0
 48
2.0
100
AcDbLine
 10
610.694796
 20
1245.841523
 30
0.0
 11
614.737588
 21
1245.841523
 31
0.0
1001
ACAD
1000
RTLwPs
1070
   128
  0
LINE
  5
6C1C
100
AcDbEntity
  8
MSL-90-P25-R-0
 48
2.0
100
AcDbLine
 10
610.694796
 20
1254.341523
 30
0.0
 11
614.737588
 21
1254.341523
 31
0.0
1001
ACAD
1000
RTLwPs
1070
   128
  0
LINE
  5
6C1D
100
AcDbEntity
  8
MSL-90-P25-R-0
 48
2.0
100
AcDbLine
 10
622.966192
 20
1233.619835
 30
0.0
 11
621.716192
 21
1232.898147
 31
0.0
1001
ACAD
1000
RTLwPs
1070
   128
  0
LINE
  5
6C1E
100
AcDbEntity
  8
MSL-90-P25-R-0
 48
2.0
100
AcDbLine
 10
621.716192
 20
1235.784899
 30
0.0
 11
622.966192
 21
1235.063211
 31
0.0
1001
ACAD
1000
RTLwPs
1070
   128
  0
LINE
  5
6C1F
100
AcDbEntity
  8
MSL-90-P25-R-0
 48
2.0
100
AcDbLine
 10
622.966192
 20
1235.063211
 30
0.0
 11
622.966192
 21
1233.619835
 31
0.0
1001
ACAD
1000
RTLwPs
1070
   128
  0
LINE
  5
6C20
100
AcDbEntity
  8
MSL-90-P25-R-0
 48
2.0
100
AcDbLine
 10
620.466192
 20
1233.619835
 30
0.0
 11
620.466192
 21
1235.063211
 31
0.0
1001
ACAD
1000
RTLwPs
1070
   128
  0
LINE
  5
6C21
100
AcDbEntity
  8
MSL-90-P25-R-0
 48
2.0
100
AcDbLine
 10
620.466192
 20
1235.063211
 30
0.0
 11
621.716192
 21
1235.784899
 31
0.0
1001
ACAD
1000
RTLwPs
1070
   128
  0
LINE
  5
6C22
100
AcDbEntity
  8
MSL-90-P25-R-0
 48
2.0
100
AcDbLine
 10
621.716192
 20
1232.898147
 30
0.0
 11
620.466192
 21
1233.619835
 31
0.0
1001
ACAD
1000
RTLwPs
1070
   128
  0
ARC
  5
6C23
100
AcDbEntity
  8
MSL-90-P25-R-5
 48
2.0
100
AcDbCircle
 10
621.716192
 20
1234.341523
 30
0.0
 40
2.5
100
AcDbArc
 50
255.0
 51
195.0
1001
ACAD
1000
RTLwPs
1070
   128
  0
CIRCLE
  5
6C24
100
AcDbEntity
  8
MSL-90-P25-R-0
 48
2.0
100
AcDbCircle
 10
621.716192
 20
1234.341523
 30
0.0
 40
2.1
1001
ACAD
1000
RTLwPs
1070
   128
  0
LINE
  5
6C25
100
AcDbEntity
  8
MSL-90-P25-R-5
 48
2.0
100
AcDbLine
 10
614.216192
 20
1237.576523
 30
0.0
 11
601.716192
 21
1237.576523
 31
0.0
1001
ACAD
1000
RTLwPs
1070
   128
  0
LINE
  5
6C26
100
AcDbEntity
  8
MSL-90-P25-R-0
 48
2.0
100
AcDbLine
 10
614.216192
 20
1238.341523
 30
0.0
 11
601.716192
 21
1238.341523
 31
0.0
1001
ACAD
1000
RTLwPs
1070
   128
  0
LINE
  5
6C27
100
AcDbEntity
  8
MSL-90-P25-R-5
 48
2.0
100
AcDbLine
 10
614.216192
 20
1231.106523
 30
0.0
 11
601.716192
 21
1231.106523
 31
0.0
1001
ACAD
1000
RTLwPs
1070
   128
  0
LINE
  5
6C28
100
AcDbEntity
  8
MSL-90-P25-R-0
 48
2.0
100
AcDbLine
 10
601.716192
 20
1230.341523
 30
0.0
 11
614.216192
 21
1230.341523
 31
0.0
1001
ACAD
1000
RTLwPs
1070
   128
  0
LINE
  5
6C29
100
AcDbEntity
  8
MSL-90-P25-R-0
 48
2.0
100
AcDbLine
 10
601.716192
 20
1238.341523
 30
0.0
 11
601.716192
 21
1230.341523
 31
0.0
1001
ACAD
1000
RTLwPs
1070
   128
  0
LINE
  5
6C2A
100
AcDbEntity
  8
MSL-90-P25-R-0
 48
2.0
100
AcDbLine
 10
615.216192
 20
1241.841523
 30
0.0
 11
614.216192
 21
1241.573574
 31
0.0
1001
ACAD
1000
RTLwPs
1070
   128
  0
LINE
  5
6C2B
100
AcDbEntity
  8
MSL-90-P25-R-5
 48
2.0
100
AcDbLine
 10
642.716192
 20
1254.341523
 30
0.0
 11
642.716192
 21
1258.667606
 31
0.0
  0
POLYLINE
  5
6C2C
100
AcDbEntity
  8
MSL-90-P25-R-0
 48
2.0
100
AcDb2dPolyline
 66
     1
 10
0.0
 20
0.0
 30
0.0
  0
VERTEX
  5
6C2D
100
AcDbEntity
  8
MSL-90-P25-R-0
 48
2.0
100
AcDbVertex
100
AcDb2dVertex
 10
646.716192
 20
1254.341523
 30
0.0
  0
VERTEX
  5
6C2E
100
AcDbEntity
  8
MSL-90-P25-R-0
 48
2.0
100
AcDbVertex
100
AcDb2dVertex
 10
646.716192
 20
1260.341523
 30
0.0
  0
SEQEND
  5
6C2F
100
AcDbEntity
  8
MSL-90-P25-R-0
 48
2.0
  0
POLYLINE
  5
6C30
100
AcDbEntity
  8
MSL-90-P25-R-0
 48
2.0
100
AcDb2dPolyline
 66
     1
 10
0.0
 20
0.0
 30
0.0
  0
VERTEX
  5
6C31
100
AcDbEntity
  8
MSL-90-P25-R-0
 48
2.0
100
AcDbVertex
100
AcDb2dVertex
 10
639.216192
 20
1254.341523
 30
0.0
  0
VERTEX
  5
6C32
100
AcDbEntity
  8
MSL-90-P25-R-0
 48
2.0
100
AcDbVertex
100
AcDb2dVertex
 10
639.216192
 20
1259.091523
 30
0.0
  0
SEQEND
  5
6C33
100
AcDbEntity
  8
MSL-90-P25-R-0
 48
2.0
  0
POLYLINE
  5
6C34
100
AcDbEntity
  8
MSL-90-P25-R-0
 48
2.0
100
AcDb2dPolyline
 66
     1
 10
0.0
 20
0.0
 30
0.0
  0
VERTEX
  5
6C35
100
AcDbEntity
  8
MSL-90-P25-R-0
 48
2.0
100
AcDbVertex
100
AcDb2dVertex
 10
649.216192
 20
1254.341523
 30
0.0
  0
VERTEX
  5
6C36
100
AcDbEntity
  8
MSL-90-P25-R-0
 48
2.0
100
AcDbVertex
100
AcDb2dVertex
 10
649.216192
 20
1257.841523
 30
0.0
  0
VERTEX
  5
6C37
100
AcDbEntity
  8
MSL-90-P25-R-0
 48
2.0
100
AcDbVertex
100
AcDb2dVertex
 10
646.716192
 20
1260.341523
 30
0.0
  0
VERTEX
  5
6C38
100
AcDbEntity
  8
MSL-90-P25-R-0
 48
2.0
100
AcDbVertex
100
AcDb2dVertex
 10
642.716192
 20
1260.341523
 30
0.0
  0
VERTEX
  5
6C39
100
AcDbEntity
  8
MSL-90-P25-R-0
 48
2.0
100
AcDbVertex
100
AcDb2dVertex
 10
642.716192
 20
1259.591523
 30
0.0
 42
-0.414214
  0
VERTEX
  5
6C3A
100
AcDbEntity
  8
MSL-90-P25-R-0
 48
2.0
100
AcDbVertex
100
AcDb2dVertex
 10
642.216192
 20
1259.091523
 30
0.0
  0
VERTEX
  5
6C3B
100
AcDbEntity
  8
MSL-90-P25-R-0
 48
2.0
100
AcDbVertex
100
AcDb2dVertex
 10
639.216192
 20
1259.091523
 30
0.0
  0
VERTEX
  5
6C3C
100
AcDbEntity
  8
MSL-90-P25-R-0
 48
2.0
100
AcDbVertex
100
AcDb2dVertex
 10
638.716192
 20
1258.591523
 30
0.0
  0
VERTEX
  5
6C3D
100
AcDbEntity
  8
MSL-90-P25-R-0
 48
2.0
100
AcDbVertex
100
AcDb2dVertex
 10
638.716192
 20
1254.341523
 30
0.0
  0
SEQEND
  5
6C3E
100
AcDbEntity
  8
MSL-90-P25-R-0
 48
2.0
  0
POLYLINE
  5
6C3F
100
AcDbEntity
  8
MSL-90-P25-R-0
 48
2.0
100
AcDb2dPolyline
 66
     1
 10
0.0
 20
0.0
 30
0.0
  0
VERTEX
  5
6C40
100
AcDbEntity
  8
MSL-90-P25-R-0
 48
2.0
100
AcDbVertex
100
AcDb2dVertex
 10
638.716192
 20
1384.409605
 30
0.0
  0
VERTEX
  5
6C41
100
AcDbEntity
  8
MSL-90-P25-R-0
 48
2.0
100
AcDbVertex
100
AcDb2dVertex
 10
638.716192
 20
1387.909605
 30
0.0
  0
SEQEND
  5
6C42
100
AcDbEntity
  8
MSL-90-P25-R-0
 48
2.0
  0
POLYLINE
  5
6C43
100
AcDbEntity
  8
MSL-90-P25-R-0
 48
2.0
100
AcDb2dPolyline
 66
     1
 10
0.0
 20
0.0
 30
0.0
  0
VERTEX
  5
6C44
100
AcDbEntity
  8
MSL-90-P25-R-0
 48
2.0
100
AcDbVertex
100
AcDb2dVertex
 10
637.716192
 20
1384.409605
 30
0.0
  0
VERTEX
  5
6C45
100
AcDbEntity
  8
MSL-90-P25-R-0
 48
2.0
100
AcDbVertex
100
AcDb2dVertex
 10
637.716192
 20
1387.909605
 30
0.0
  0
SEQEND
  5
6C46
100
AcDbEntity
  8
MSL-90-P25-R-0
 48
2.0
  0
LINE
  5
6C47
100
AcDbEntity
  8
MSL-90-P25-R-0
 48
2.0
100
AcDbLine
 10
634.216192
 20
1389.409605
 30
0.0
 11
634.216192
 21
1388.909605
 31
0.0
  0
ARC
  5
6C48
100
AcDbEntity
  8
MSL-90-P25-R-0
 48
2.0
100
AcDbCircle
 10
594.7805
 20
1258.740894
 30
0.0
 40
20.436238
100
AcDbArc
 50
347.568452
 51
359.581213
1001
ACAD
1000
RTLwPs
1070
   128
  0
ARC
  5
6C49
100
AcDbEntity
  8
MSL-90-P25-R-0
 48
2.0
100
AcDbCircle
 10
630.637478
 20
1258.739272
 30
0.0
 40
20.421821
100
AcDbArc
 50
180.414532
 51
192.435804
1001
ACAD
1000
RTLwPs
1070
   128
  0
LINE
  5
6C4A
100
AcDbEntity
  8
MSL-90-P25-R-0
 48
2.0
100
AcDbLine
 10
610.216192
 20
1250.091523
 30
0.0
 11
610.216192
 21
1258.591523
 31
0.0
1001
ACAD
1000
RTLwPs
1070
   128
  0
LINE
  5
6C4B
100
AcDbEntity
  8
MSL-90-P25-R-0
 48
2.0
100
AcDbLine
 10
557.716192
 20
1260.841523
 30
0.0
 11
557.716192
 21
1260.341523
 31
0.0
  0
LINE
  5
6C4C
100
AcDbEntity
  8
MSL-90-P25-R-0
 48
2.0
100
AcDbLine
 10
558.216192
 20
1261.341523
 30
0.0
 11
557.716192
 21
1260.841523
 31
0.0
  0
LINE
  5
6C4D
100
AcDbEntity
  8
MSL-90-P25-R-0
 48
2.0
100
AcDbLine
 10
551.216192
 20
1260.341523
 30
0.0
 11
550.716192
 21
1259.841523
 31
0.0
  0
LINE
  5
6C4E
100
AcDbEntity
  8
MSL-90-P25-R-0
 48
2.0
100
AcDbLine
 10
557.716192
 20
1260.341523
 30
0.0
 11
551.216192
 21
1260.341523
 31
0.0
  0
LINE
  5
6C4F
100
AcDbEntity
  8
MSL-90-P25-R-0
 48
2.0
100
AcDbLine
 10
593.716192
 20
1238.341523
 30
0.0
 11
593.716192
 21
1230.341523
 31
0.0
1001
ACAD
1000
RTLwPs
1070
   128
  0
LINE
  5
6C50
100
AcDbEntity
  8
MSL-90-P25-R-0
 48
2.0
100
AcDbLine
 10
585.216192
 20
1238.341523
 30
0.0
 11
585.216192
 21
1236.341523
 31
0.0
1001
ACAD
1000
RTLwPs
1070
   128
  0
LINE
  5
6C51
100
AcDbEntity
  8
MSL-90-P25-R-0
 48
2.0
100
AcDbLine
 10
576.716192
 20
1236.341523
 30
0.0
 11
576.716192
 21
1238.341523
 31
0.0
1001
ACAD
1000
RTLwPs
1070
   128
  0
LINE
  5
6C52
100
AcDbEntity
  8
MSL-90-P25-R-0
 48
2.0
100
AcDbLine
 10
576.716192
 20
1238.341523
 30
0.0
 11
585.216192
 21
1238.341523
 31
0.0
1001
ACAD
1000
RTLwPs
1070
   128
  0
LINE
  5
6C53
100
AcDbEntity
  8
MSL-90-P25-R-0
 48
2.0
100
AcDbLine
 10
585.216192
 20
1232.341523
 30
0.0
 11
585.216192
 21
1230.341523
 31
0.0
1001
ACAD
1000
RTLwPs
1070
   128
  0
LINE
  5
6C54
100
AcDbEntity
  8
MSL-90-P25-R-0
 48
2.0
100
AcDbLine
 10
576.716192
 20
1230.341523
 30
0.0
 11
576.716192
 21
1232.341523
 31
0.0
1001
ACAD
1000
RTLwPs
1070
   128
  0
LINE
  5
6C55
100
AcDbEntity
  8
MSL-90-P25-R-0
 48
2.0
100
AcDbLine
 10
585.216192
 20
1230.341523
 30
0.0
 11
576.716192
 21
1230.341523
 31
0.0
1001
ACAD
1000
RTLwPs
1070
   128
  0
LINE
  5
6C56
100
AcDbEntity
  8
MSL-90-P25-R-0
 48
2.0
100
AcDbLine
 10
585.216192
 20
1236.341523
 30
0.0
 11
585.216192
 21
1232.341523
 31
0.0
1001
ACAD
1000
RTLwPs
1070
   128
  0
LINE
  5
6C57
100
AcDbEntity
  8
MSL-90-P25-R-0
 48
2.0
100
AcDbLine
 10
576.716192
 20
1236.341523
 30
0.0
 11
576.716192
 21
1232.341523
 31
0.0
1001
ACAD
1000
RTLwPs
1070
   128
  0
LINE
  5
6C58
100
AcDbEntity
  8
MSL-90-P25-R-0
 48
2.0
100
AcDbLine
 10
593.716192
 20
1238.341523
 30
0.0
 11
585.216192
 21
1238.341523
 31
0.0
1001
ACAD
1000
RTLwPs
1070
   128
  0
LINE
  5
6C59
100
AcDbEntity
  8
MSL-90-P25-R-0
 48
2.0
100
AcDbLine
 10
585.216192
 20
1230.341523
 30
0.0
 11
593.716192
 21
1230.341523
 31
0.0
1001
ACAD
1000
RTLwPs
1070
   128
  0
LINE
  5
6C5A
100
AcDbEntity
  8
MSL-90-P25-R-0
 48
2.0
100
AcDbLine
 10
557.716192
 20
1247.841523
 30
0.0
 11
557.716192
 21
1248.341523
 31
0.0
  0
LINE
  5
6C5B
100
AcDbEntity
  8
MSL-90-P25-R-0
 48
2.0
100
AcDbLine
 10
558.216192
 20
1247.341523
 30
0.0
 11
557.716192
 21
1247.841523
 31
0.0
  0
LINE
  5
6C5C
100
AcDbEntity
  8
MSL-90-P25-R-0
 48
2.0
100
AcDbLine
 10
557.716192
 20
1248.341523
 30
0.0
 11
557.716192
 21
1254.341523
 31
0.0
  0
LINE
  5
6C5D
100
AcDbEntity
  8
MSL-90-P25-R-0
 48
2.0
100
AcDbLine
 10
551.216192
 20
1248.341523
 30
0.0
 11
550.716192
 21
1248.841523
 31
0.0
  0
LINE
  5
6C5E
100
AcDbEntity
  8
MSL-90-P25-R-0
 48
2.0
100
AcDbLine
 10
550.716192
 20
1248.841523
 30
0.0
 11
550.716192
 21
1254.341523
 31
0.0
  0
LINE
  5
6C5F
100
AcDbEntity
  8
MSL-90-P25-R-0
 48
2.0
100
AcDbLine
 10
557.716192
 20
1248.341523
 30
0.0
 11
551.216192
 21
1248.341523
 31
0.0
  0
LINE
  5
6C60
100
AcDbEntity
  8
MSL-90-P25-R-0
 48
2.0
100
AcDbLine
 10
550.716192
 20
1259.841523
 30
0.0
 11
550.716192
 21
1254.341523
 31
0.0
  0
LINE
  5
6C61
100
AcDbEntity
  8
MSL-90-P25-R-0
 48
2.0
100
AcDbLine
 10
551.216192
 20
1260.341523
 30
0.0
 11
551.216192
 21
1248.341523
 31
0.0
  0
LINE
  5
6C62
100
AcDbEntity
  8
MSL-90-P25-R-0
 48
2.0
100
AcDbLine
 10
557.716192
 20
1260.341523
 30
0.0
 11
557.716192
 21
1254.341523
 31
0.0
  0
LINE
  5
6C63
100
AcDbEntity
  8
MSL-90-P25-R-0
 48
2.0
100
AcDbLine
 10
558.216192
 20
1261.341523
 30
0.0
 11
558.216192
 21
1247.341523
 31
0.0
  0
LINE
  5
6C64
100
AcDbEntity
  8
MSL-90-P25-R-7A
 48
2.0
100
AcDbLine
 10
547.39076
 20
1254.341523
 30
0.0
 11
654.945986
 21
1254.341523
 31
0.0
  0
LINE
  5
6C65
100
AcDbEntity
  8
MSL-90-P25-R-0
 48
2.0
100
AcDbLine
 10
601.716192
 20
1237.841523
 30
0.0
 11
593.716192
 21
1237.841523
 31
0.0
1001
ACAD
1000
RTLwPs
1070
   128
  0
LINE
  5
6C66
100
AcDbEntity
  8
MSL-90-P25-R-0
 48
2.0
100
AcDbLine
 10
593.716192
 20
1230.841523
 30
0.0
 11
601.716192
 21
1230.841523
 31
0.0
1001
ACAD
1000
RTLwPs
1070
   128
  0
LINE
  5
6C67
100
AcDbEntity
  8
MSL-90-P25-R-0
 48
2.0
100
AcDbLine
 10
610.216192
 20
1261.341523
 30
0.0
 11
558.216192
 21
1261.341523
 31
0.0
  0
LINE
  5
6C68
100
AcDbEntity
  8
MSL-90-P25-R-5
 48
2.0
100
AcDbLine
 10
557.716192
 20
1260.841523
 30
0.0
 11
610.216192
 21
1260.841523
 31
0.0
  0
LINE
  5
6C69
100
AcDbEntity
  8
MSL-90-P25-R-0
 48
2.0
100
AcDbLine
 10
610.216192
 20
1247.341523
 30
0.0
 11
558.216192
 21
1247.341523
 31
0.0
  0
LINE
  5
6C6A
100
AcDbEntity
  8
MSL-90-P25-R-5
 48
2.0
100
AcDbLine
 10
557.716192
 20
1247.841523
 30
0.0
 11
610.216192
 21
1247.841523
 31
0.0
  0
LINE
  5
6C6B
100
AcDbEntity
  8
MSL-90-P25-R-0
 48
2.0
100
AcDbLine
 10
657.716192
 20
1283.091786
 30
0.0
 11
649.716192
 21
1283.091786
 31
0.0
1001
ACAD
1000
RTLwPs
1070
   128
  0
LINE
  5
6C6C
100
AcDbEntity
  8
MSL-90-P25-R-0
 48
2.0
100
AcDbLine
 10
649.716192
 20
1284.091786
 30
0.0
 11
657.716192
 21
1284.091786
 31
0.0
1001
ACAD
1000
RTLwPs
1070
   128
  0
CIRCLE
  5
6C6D
100
AcDbEntity
  8
MSL-90-P25-R-0
 48
2.0
100
AcDbCircle
 10
757.716192
 20
1201.841523
 30
0.0
 40
2.5
1001
ACAD
1000
RTLwPs
1070
   128
  0
ARC
  5
6C6E
100
AcDbEntity
  8
MSL-90-P25-R-5
 48
2.0
100
AcDbCircle
 10
757.716192
 20
1201.841523
 30
0.0
 40
3.0
100
AcDbArc
 50
255.0
 51
195.0
1001
ACAD
1000
RTLwPs
1070
   128
  0
CIRCLE
  5
6C6F
100
AcDbEntity
  8
MSL-90-P25-R-0
 48
2.0
100
AcDbCircle
 10
732.716192
 20
1201.841523
 30
0.0
 40
2.5
1001
ACAD
1000
RTLwPs
1070
   128
  0
ARC
  5
6C70
100
AcDbEntity
  8
MSL-90-P25-R-5
 48
2.0
100
AcDbCircle
 10
732.716192
 20
1201.841523
 30
0.0
 40
3.0
100
AcDbArc
 50
255.0
 51
195.0
1001
ACAD
1000
RTLwPs
1070
   128
  0
LINE
  5
6C71
100
AcDbEntity
  8
MSL-90-P25-R-7A
 48
2.0
100
AcDbLine
 10
757.716192
 20
1195.341523
 30
0.0
 11
757.716192
 21
1208.341523
 31
0.0
  0
LINE
  5
6C72
100
AcDbEntity
  8
MSL-90-P25-R-7A
 48
2.0
100
AcDbLine
 10
732.716192
 20
1197.341523
 30
0.0
 11
732.716192
 21
1206.341523
 31
0.0
  0
CIRCLE
  5
6C73
100
AcDbEntity
  8
MSL-90-P25-R-0
 48
2.0
100
AcDbCircle
 10
707.716192
 20
1201.841523
 30
0.0
 40
2.5
1001
ACAD
1000
RTLwPs
1070
   128
  0
ARC
  5
6C74
100
AcDbEntity
  8
MSL-90-P25-R-5
 48
2.0
100
AcDbCircle
 10
707.716192
 20
1201.841523
 30
0.0
 40
3.0
100
AcDbArc
 50
255.0
 51
195.0
1001
ACAD
1000
RTLwPs
1070
   128
  0
ARC
  5
6C75
100
AcDbEntity
  8
MSL-90-P25-R-5
 48
2.0
100
AcDbCircle
 10
682.716192
 20
1201.841523
 30
0.0
 40
3.0
100
AcDbArc
 50
255.0
 51
195.0
1001
ACAD
1000
RTLwPs
1070
   128
  0
CIRCLE
  5
6C76
100
AcDbEntity
  8
MSL-90-P25-R-0
 48
2.0
100
AcDbCircle
 10
682.716192
 20
1201.841523
 30
0.0
 40
2.5
1001
ACAD
1000
RTLwPs
1070
   128
  0
LINE
  5
6C77
100
AcDbEntity
  8
MSL-90-P25-R-0
 48
2.0
100
AcDbLine
 10
657.716192
 20
1184.341786
 30
0.0
 11
657.716192
 21
1184.841786
 31
0.0
1001
ACAD
1000
RTLwPs
1070
   128
  0
LINE
  5
6C78
100
AcDbEntity
  8
MSL-90-P25-R-7A
 48
2.0
100
AcDbLine
 10
682.716192
 20
1197.341523
 30
0.0
 11
682.716192
 21
1206.341523
 31
0.0
  0
LINE
  5
6C79
100
AcDbEntity
  8
MSL-90-P25-R-7A
 48
2.0
100
AcDbLine
 10
707.716192
 20
1195.341523
 30
0.0
 11
707.716192
 21
1208.341523
 31
0.0
  0
LINE
  5
6C7A
100
AcDbEntity
  8
MSL-90-P25-R-0
 48
2.0
100
AcDbLine
 10
657.716192
 20
1184.841786
 30
0.0
 11
657.716192
 21
1224.341786
 31
0.0
1001
ACAD
1000
RTLwPs
1070
   128
  0
CIRCLE
  5
6C7B
100
AcDbEntity
  8
MSL-90-P25-R-0
 48
2.0
100
AcDbCircle
 10
707.716192
 20
1201.841523
 30
0.0
 40
5.0
1001
ACAD
1000
RTLwPs
1070
   128
  0
LINE
  5
6C7C
100
AcDbEntity
  8
MSL-90-P25-R-0
 48
2.0
100
AcDbLine
 10
644.191193
 20
1226.83597
 30
0.0
 11
648.741193
 21
1226.83597
 31
0.0
  0
LINE
  5
6C7E
100
AcDbEntity
  8
MSL-90-P25-R-0
 48
2.0
100
AcDbLine
 10
636.716192
 20
1224.341523
 30
0.0
 11
636.716192
 21
1224.589854
 31
0.0
1001
ACAD
1000
RTLwPs
1070
   128
  0
LINE
  5
6C7F
100
AcDbEntity
  8
MSL-90-P25-R-0
 48
2.0
100
AcDbLine
 10
636.716192
 20
1224.589854
 30
0.0
 11
636.716192
 21
1225.341523
 31
0.0
1001
ACAD
1000
RTLwPs
1070
   128
  0
LINE
  5
6C80
100
AcDbEntity
  8
MSL-90-P25-R-0
 48
2.0
100
AcDbLine
 10
636.716192
 20
1224.341523
 30
0.0
 11
636.964523
 21
1224.341523
 31
0.0
1001
ACAD
1000
RTLwPs
1070
   128
  0
ARC
  5
6C81
100
AcDbEntity
  8
MSL-90-P25-R-0
 48
2.0
100
AcDbCircle
 10
636.232382
 20
1223.847949
 30
0.0
 40
2.983817
100
AcDbArc
 50
359.876602
 51
90.310869
1001
ACAD
1000
RTLwPs
1070
   128
  0
ARC
  5
6C82
100
AcDbEntity
  8
MSL-90-P25-R-0
 48
2.0
100
AcDbCircle
 10
636.216192
 20
1223.841523
 30
0.0
 40
0.9
100
AcDbArc
 50
33.748989
 51
56.251011
1001
ACAD
1000
RTLwPs
1070
   128
  0
ARC
  5
6C83
100
AcDbEntity
  8
MSL-90-P25-R-0
 48
2.0
100
AcDbCircle
 10
636.216192
 20
1223.841523
 30
0.0
 40
0.9
100
AcDbArc
 50
303.748989
 51
326.251011
1001
ACAD
1000
RTLwPs
1070
   128
  0
LINE
  5
6C84
100
AcDbEntity
  8
MSL-90-P25-R-0
 48
2.0
100
AcDbLine
 10
637.716192
 20
1223.341523
 30
0.0
 11
637.716192
 21
1224.341523
 31
0.0
1001
ACAD
1000
RTLwPs
1070
   128
  0
LINE
  5
6C85
100
AcDbEntity
  8
MSL-90-P25-R-0
 48
2.0
100
AcDbLine
 10
637.716192
 20
1224.341523
 30
0.0
 11
636.964523
 21
1224.341523
 31
0.0
1001
ACAD
1000
RTLwPs
1070
   128
  0
LINE
  5
6C86
100
AcDbEntity
  8
MSL-90-P25-R-0
 48
2.0
100
AcDbLine
 10
636.716192
 20
1223.093191
 30
0.0
 11
636.716192
 21
1223.341523
 31
0.0
1001
ACAD
1000
RTLwPs
1070
   128
  0
LINE
  5
6C87
100
AcDbEntity
  8
MSL-90-P25-R-0
 48
2.0
100
AcDbLine
 10
636.964523
 20
1223.341523
 30
0.0
 11
637.716192
 21
1223.341523
 31
0.0
1001
ACAD
1000
RTLwPs
1070
   128
  0
LINE
  5
6C88
100
AcDbEntity
  8
MSL-90-P25-R-0
 48
2.0
100
AcDbLine
 10
636.964523
 20
1223.341523
 30
0.0
 11
636.716192
 21
1223.341523
 31
0.0
1001
ACAD
1000
RTLwPs
1070
   128
  0
LINE
  5
6C89
100
AcDbEntity
  8
MSL-90-P25-R-0
 48
2.0
100
AcDbLine
 10
636.716192
 20
1222.341523
 30
0.0
 11
636.716192
 21
1223.093191
 31
0.0
1001
ACAD
1000
RTLwPs
1070
   128
  0
LINE
  5
6C8A
100
AcDbEntity
  8
MSL-90-P25-R-0
 48
2.0
100
AcDbLine
 10
631.035264
 20
1224.541523
 30
0.0
 11
629.216192
 21
1224.541523
 31
0.0
  0
ARC
  5
6C8B
100
AcDbEntity
  8
MSL-90-P25-R-0
 48
2.0
100
AcDbCircle
 10
636.216192
 20
1223.841523
 30
0.0
 40
0.9
100
AcDbArc
 50
123.748989
 51
146.251011
1001
ACAD
1000
RTLwPs
1070
   128
  0
LINE
  5
6C8C
100
AcDbEntity
  8
MSL-90-P25-R-0
 48
2.0
100
AcDbLine
 10
635.716192
 20
1224.589854
 30
0.0
 11
635.716192
 21
1224.341523
 31
0.0
1001
ACAD
1000
RTLwPs
1070
   128
  0
LINE
  5
6C8D
100
AcDbEntity
  8
MSL-90-P25-R-0
 48
2.0
100
AcDbLine
 10
635.716192
 20
1223.341523
 30
0.0
 11
635.716192
 21
1223.093191
 31
0.0
1001
ACAD
1000
RTLwPs
1070
   128
  0
LINE
  5
6C8E
100
AcDbEntity
  8
MSL-90-P25-R-0
 48
2.0
100
AcDbLine
 10
634.716192
 20
1223.341523
 30
0.0
 11
635.46786
 21
1223.341523
 31
0.0
1001
ACAD
1000
RTLwPs
1070
   128
  0
LINE
  5
6C8F
100
AcDbEntity
  8
MSL-90-P25-R-0
 48
2.0
100
AcDbLine
 10
635.46786
 20
1224.341523
 30
0.0
 11
634.716192
 21
1224.341523
 31
0.0
1001
ACAD
1000
RTLwPs
1070
   128
  0
LINE
  5
6C90
100
AcDbEntity
  8
MSL-90-P25-R-0
 48
2.0
100
AcDbLine
 10
635.716192
 20
1225.341523
 30
0.0
 11
635.716192
 21
1224.589854
 31
0.0
1001
ACAD
1000
RTLwPs
1070
   128
  0
LINE
  5
6C91
100
AcDbEntity
  8
MSL-90-P25-R-0
 48
2.0
100
AcDbLine
 10
635.716192
 20
1223.093191
 30
0.0
 11
635.716192
 21
1222.341523
 31
0.0
1001
ACAD
1000
RTLwPs
1070
   128
  0
LINE
  5
6C92
100
AcDbEntity
  8
MSL-90-P25-R-0
 48
2.0
100
AcDbLine
 10
635.46786
 20
1224.341523
 30
0.0
 11
635.716192
 21
1224.341523
 31
0.0
1001
ACAD
1000
RTLwPs
1070
   128
  0
LINE
  5
6C93
100
AcDbEntity
  8
MSL-90-P25-R-0
 48
2.0
100
AcDbLine
 10
635.716192
 20
1223.341523
 30
0.0
 11
635.46786
 21
1223.341523
 31
0.0
1001
ACAD
1000
RTLwPs
1070
   128
  0
LINE
  5
6C94
100
AcDbEntity
  8
MSL-90-P25-R-0
 48
2.0
100
AcDbLine
 10
634.716192
 20
1224.341523
 30
0.0
 11
634.716192
 21
1223.341523
 31
0.0
1001
ACAD
1000
RTLwPs
1070
   128
  0
ARC
  5
6C95
100
AcDbEntity
  8
MSL-90-P25-R-0
 48
2.0
100
AcDbCircle
 10
636.216192
 20
1223.841523
 30
0.0
 40
0.9
100
AcDbArc
 50
213.748989
 51
236.251011
1001
ACAD
1000
RTLwPs
1070
   128
  0
LINE
  5
6C96
100
AcDbEntity
  8
MSL-90-P25-R-0
 48
2.0
100
AcDbLine
 10
632.716192
 20
1222.755736
 30
0.0
 11
631.716192
 21
1222.341523
 31
0.0
1001
ACAD
1000
RTLwPs
1070
   128
  0
LINE
  5
6C97
100
AcDbEntity
  8
MSL-90-P25-R-0
 48
2.0
100
AcDbLine
 10
632.716192
 20
1227.187531
 30
0.0
 11
632.716192
 21
1222.755736
 31
0.0
1001
ACAD
1000
RTLwPs
1070
   128
  0
LINE
  5
6C98
100
AcDbEntity
  8
MSL-90-P25-R-0
 48
2.0
100
AcDbLine
 10
631.716192
 20
1222.341523
 30
0.0
 11
631.716192
 21
1225.289542
 31
0.0
1001
ACAD
1000
RTLwPs
1070
   128
  0
LINE
  5
6C99
100
AcDbEntity
  8
MSL-90-P25-R-0
 48
2.0
100
AcDbLine
 10
636.216193
 20
1226.831722
 30
0.0
 11
633.033693
 21
1226.831722
 31
0.0
  0
LINE
  5
6C9A
100
AcDbEntity
  8
MSL-90-P25-R-0
 48
2.0
100
AcDbLine
 10
636.716192
 20
1225.341523
 30
0.0
 11
635.716192
 21
1225.341523
 31
0.0
1001
ACAD
1000
RTLwPs
1070
   128
  0
LINE
  5
6C9B
100
AcDbEntity
  8
MSL-90-P25-R-0
 48
2.0
100
AcDbLine
 10
635.716192
 20
1222.341523
 30
0.0
 11
636.716192
 21
1222.341523
 31
0.0
1001
ACAD
1000
RTLwPs
1070
   128
  0
LINE
  5
6C9C
100
AcDbEntity
  8
MSL-90-P25-R-0
 48
2.0
100
AcDbLine
 10
635.130405
 20
1220.341523
 30
0.0
 11
634.716192
 21
1219.341523
 31
0.0
1001
ACAD
1000
RTLwPs
1070
   128
  0
ARC
  5
6C9D
100
AcDbEntity
  8
MSL-90-P25-R-0
 48
2.0
100
AcDbCircle
 10
636.216192
 20
1223.841523
 30
0.0
 40
3.2
100
AcDbArc
 50
110.862588
 51
89.999982
  0
ARC
  5
6C9E
100
AcDbEntity
  8
MSL-90-P25-R-0
 48
2.0
100
AcDbCircle
 10
636.216192
 20
1223.841523
 30
0.0
 40
3.0
100
AcDbArc
 50
93.403066
 51
0.0
1001
ACAD
1000
RTLwPs
1070
   128
  0
LINE
  5
6C9F
100
AcDbEntity
  8
MSL-90-P25-R-0
 48
2.0
100
AcDbLine
 10
634.716192
 20
1219.341523
 30
0.0
 11
631.716192
 21
1222.341523
 31
0.0
1001
ACAD
1000
RTLwPs
1070
   128
  0
LINE
  5
6CA0
100
AcDbEntity
  8
MSL-90-P25-R-0
 48
2.0
100
AcDbLine
 10
632.716192
 20
1222.755736
 30
0.0
 11
635.130405
 21
1220.341523
 31
0.0
1001
ACAD
1000
RTLwPs
1070
   128
  0
LINE
  5
6CA1
100
AcDbEntity
  8
MSL-90-P25-R-0
 48
2.0
100
AcDbLine
 10
647.216192
 20
1219.341523
 30
0.0
 11
634.716192
 21
1219.341523
 31
0.0
1001
ACAD
1000
RTLwPs
1070
   128
  0
LINE
  5
6CA2
100
AcDbEntity
  8
MSL-90-P25-R-0
 48
2.0
100
AcDbLine
 10
635.130405
 20
1220.341523
 30
0.0
 11
647.216192
 21
1220.341523
 31
0.0
  0
LINE
  5
6CA3
100
AcDbEntity
  8
MSL-90-P25-R-0
 48
2.0
100
AcDbLine
 10
635.216192
 20
1207.841523
 30
0.0
 11
647.216192
 21
1207.841523
 31
0.0
1001
ACAD
1000
RTLwPs
1070
   128
  0
LINE
  5
6CA4
100
AcDbEntity
  8
MSL-90-P25-R-0
 48
2.0
100
AcDbLine
 10
614.216192
 20
1227.109472
 30
0.0
 11
615.216192
 21
1226.841523
 31
0.0
1001
ACAD
1000
RTLwPs
1070
   128
  0
ARC
  5
6CA5
100
AcDbEntity
  8
MSL-90-P25-R-0
 48
2.0
100
AcDbCircle
 10
635.216192
 20
1213.841523
 30
0.0
 40
6.0
100
AcDbArc
 50
180.0
 51
270.0
1001
ACAD
1000
RTLwPs
1070
   128
  0
LINE
  5
6CA6
100
AcDbEntity
  8
MSL-90-P25-R-0
 48
2.0
100
AcDbLine
 10
647.216192
 20
1189.341523
 30
0.0
 11
649.716192
 21
1189.341523
 31
0.0
1001
ACAD
1000
RTLwPs
1070
   128
  0
LINE
  5
6CA7
100
AcDbEntity
  8
MSL-90-P25-R-0
 48
2.0
100
AcDbLine
 10
629.216192
 20
1189.341523
 30
0.0
 11
629.216192
 21
1192.341523
 31
0.0
1001
ACAD
1000
RTLwPs
1070
   128
  0
LINE
  5
6CA8
100
AcDbEntity
  8
MSL-90-P25-R-0
 48
2.0
100
AcDbLine
 10
629.216192
 20
1189.341523
 30
0.0
 11
647.216192
 21
1189.341523
 31
0.0
1001
ACAD
1000
RTLwPs
1070
   128
  0
LINE
  5
6CA9
100
AcDbEntity
  8
MSL-90-P25-R-0
 48
2.0
100
AcDbLine
 10
615.216192
 20
1192.341523
 30
0.0
 11
615.216192
 21
1189.341523
 31
0.0
1001
ACAD
1000
RTLwPs
1070
   128
  0
LINE
  5
6CAA
100
AcDbEntity
  8
MSL-90-P25-R-0
 48
2.0
100
AcDbLine
 10
615.216192
 20
1189.341523
 30
0.0
 11
629.216192
 21
1189.341523
 31
0.0
1001
ACAD
1000
RTLwPs
1070
   128
  0
LINE
  5
6CAB
100
AcDbEntity
  8
MSL-90-P25-R-0
 48
2.0
100
AcDbLine
 10
629.216192
 20
1192.341523
 30
0.0
 11
615.216192
 21
1192.341523
 31
0.0
1001
ACAD
1000
RTLwPs
1070
   128
  0
LINE
  5
6CAC
100
AcDbEntity
  8
MSL-90-P25-R-0
 48
2.0
100
AcDbLine
 10
647.216192
 20
1226.83597
 30
0.0
 11
647.216192
 21
1189.341523
 31
0.0
  0
LINE
  5
6CAD
100
AcDbEntity
  8
MSL-90-P25-R-0
 48
2.0
100
AcDbLine
 10
657.716192
 20
1184.591786
 30
0.0
 11
649.716192
 21
1184.591786
 31
0.0
1001
ACAD
1000
RTLwPs
1070
   128
  0
LINE
  5
6CAE
100
AcDbEntity
  8
MSL-90-P25-R-0
 48
2.0
100
AcDbLine
 10
649.716192
 20
1185.591786
 30
0.0
 11
657.716192
 21
1185.591786
 31
0.0
1001
ACAD
1000
RTLwPs
1070
   128
  0
ARC
  5
6CAF
100
AcDbEntity
  8
MSL-90-P25-R-0
 48
2.0
100
AcDbCircle
 10
634.778358
 20
1228.70811
 30
0.0
 40
2.562165
100
AcDbArc
 50
132.916662
 51
227.083338
  0
LINE
  5
6CB0
100
AcDbEntity
  8
MSL-90-P25-R-0
 48
2.0
100
AcDbLine
 10
636.216193
 20
1241.842829
 30
0.0
 11
636.216193
 21
1226.831722
 31
0.0
  0
ARC
  5
6CB1
100
AcDbEntity
  8
MSL-90-P25-R-0
 48
2.0
100
AcDbCircle
 10
645.509248
 20
1228.712358
 30
0.0
 40
2.293056
100
AcDbArc
 50
125.085847
 51
234.914153
  0
ARC
  5
6CB2
100
AcDbEntity
  8
MSL-90-P25-R-0
 48
2.0
100
AcDbCircle
 10
647.423137
 20
1228.712358
 30
0.0
 40
2.293056
100
AcDbArc
 50
305.085848
 51
54.914152
  0
ARC
  5
6CB3
100
AcDbEntity
  8
MSL-90-P25-R-0
 48
2.0
100
AcDbCircle
 10
629.107512
 20
1226.980307
 30
0.0
 40
3.108681
100
AcDbArc
 50
307.878142
 51
52.121858
  0
LINE
  5
6CB4
100
AcDbEntity
  8
MSL-90-P25-R-0
 48
2.0
100
AcDbLine
 10
629.216192
 20
1224.541523
 30
0.0
 11
629.216192
 21
1244.141523
 31
0.0
  0
LINE
  5
6CB5
100
AcDbEntity
  8
MSL-90-P25-R-0
 48
2.0
100
AcDbLine
 10
632.216192
 20
1226.980307
 30
0.0
 11
632.216192
 21
1241.702739
 31
0.0
  0
LINE
  5
6CB6
100
AcDbEntity
  8
MSL-90-P25-R-0
 48
2.0
100
AcDbLine
 10
614.216192
 20
1227.109472
 30
0.0
 11
614.216192
 21
1241.573574
 31
0.0
1001
ACAD
1000
RTLwPs
1070
   128
  0
LINE
  5
6CB7
100
AcDbEntity
  8
MSL-90-P25-R-0
 48
2.0
100
AcDbLine
 10
629.216192
 20
1276.341523
 30
0.0
 11
629.216192
 21
1192.341523
 31
0.0
1001
ACAD
1000
RTLwPs
1070
   128
  0
LINE
  5
6CB8
100
AcDbEntity
  8
MSL-90-P25-R-0
 48
2.0
100
AcDbLine
 10
615.216192
 20
1276.341523
 30
0.0
 11
615.216192
 21
1192.341523
 31
0.0
1001
ACAD
1000
RTLwPs
1070
   128
  0
LINE
  5
6CB9
100
AcDbEntity
  8
MSL-90-P25-R-0
 48
2.0
100
AcDbLine
 10
657.716192
 20
1244.341786
 30
0.0
 11
657.716192
 21
1224.341786
 31
0.0
1001
ACAD
1000
RTLwPs
1070
   128
  0
LINE
  5
6CBA
100
AcDbEntity
  8
MSL-90-P25-R-0
 48
2.0
100
AcDbLine
 10
657.716192
 20
1224.341786
 30
0.0
 11
657.716192
 21
1244.341786
 31
0.0
1001
ACAD
1000
RTLwPs
1070
   128
  0
LINE
  5
6CBB
100
AcDbEntity
  8
MSL-90-P25-R-0
 48
2.0
100
AcDbLine
 10
649.716192
 20
1284.091786
 30
0.0
 11
649.716192
 21
1184.591786
 31
0.0
  0
LWPOLYLINE
  5
6CBC
100
AcDbEntity
  8
MSL-90-P25-R-7A
 48
2.0
100
AcDbPolyline
 90
        2
 70
     0
 43
0.0
 10
578.216192
 20
1234.341523
 10
991.023106
 20
1234.341523
1001
ACAD
1000
RTLwPs
1070
   128
  0
LINE
  5
6CBD
100
AcDbEntity
  8
MSL-90-P25-R-7A
 48
2.0
100
AcDbLine
 10
676.935656
 20
1201.841523
 30
0.0
 11
787.856556
 21
1201.841523
 31
0.0
  0
LINE
  5
6CBE
100
AcDbEntity
  8
MSL-90-P25-R-7A
 48
2.0
100
AcDbLine
 10
677.169173
 20
1266.841523
 30
0.0
 11
788.323592
 21
1266.841523
 31
0.0
  0
LINE
  5
6CBF
100
AcDbEntity
  8
MSL-90-P25-R-0
 48
2.0
100
AcDbLine
 10
657.716192
 20
1184.841786
 30
0.0
 11
807.716192
 21
1184.841786
 31
0.0
1001
ACAD
1000
RTLwPs
1070
   128
  0
LINE
  5
6CC0
100
AcDbEntity
  8
MSL-90-P25-R-0
 48
2.0
100
AcDbLine
 10
807.716192
 20
1184.341786
 30
0.0
 11
657.716192
 21
1184.341786
 31
0.0
1001
ACAD
1000
RTLwPs
1070
   128
  0
LINE
  5
6CC1
100
AcDbEntity
  8
MSL-90-P25-R-0
 48
2.0
100
AcDbLine
 10
807.716192
 20
1283.841786
 30
0.0
 11
657.716192
 21
1283.841786
 31
0.0
1001
ACAD
1000
RTLwPs
1070
   128
  0
LINE
  5
6CC2
100
AcDbEntity
  8
MSL-90-P25-R-0
 48
2.0
100
AcDbLine
 10
657.716192
 20
1284.341786
 30
0.0
 11
807.716192
 21
1284.341786
 31
0.0
1001
ACAD
1000
RTLwPs
1070
   128
  0
LINE
  5
6CC3
100
AcDbEntity
  8
MSL-90-P25-R-0
 48
2.0
100
AcDbLine
 10
657.716192
 20
1221.841786
 30
0.0
 11
807.716192
 21
1221.841786
 31
0.0
1001
ACAD
1000
RTLwPs
1070
   128
  0
LINE
  5
6CC4
100
AcDbEntity
  8
MSL-90-P25-R-0
 48
2.0
100
AcDbLine
 10
807.716192
 20
1246.841786
 30
0.0
 11
657.716192
 21
1246.841786
 31
0.0
1001
ACAD
1000
RTLwPs
1070
   128
  0
ARC
  5
6CC5
100
AcDbEntity
  8
MSL-90-P25-R-0
 48
2.0
100
AcDbCircle
 10
819.923136
 20
1374.78044
 30
0.0
 40
2.293056
100
AcDbArc
 50
337.680533
 51
54.914153
  0
ARC
  5
6CC6
100
AcDbEntity
  8
MSL-90-P25-R-0
 48
2.0
100
AcDbCircle
 10
830.654026
 20
1374.776192
 30
0.0
 40
2.562165
100
AcDbArc
 50
340.23126
 51
47.083338
  0
LINE
  5
6CC7
100
AcDbEntity
  8
MSL-90-P25-R-0
 48
2.0
100
AcDbLine
 10
950.220521
 20
1309.409605
 30
0.0
 11
918.220521
 21
1309.409605
 31
0.0
1001
ACAD
1000
RTLwPs
1070
   128
  0
LINE
  5
6CC8
100
AcDbEntity
  8
MSL-90-P25-R-0
 48
2.0
100
AcDbLine
 10
950.220521
 20
1390.409605
 30
0.0
 11
950.220521
 21
1309.409605
 31
0.0
1001
ACAD
1000
RTLwPs
1070
   128
  0
CIRCLE
  5
6CC9
100
AcDbEntity
  8
MSL-90-P25-R-0
 48
2.0
100
AcDbCircle
 10
941.220521
 20
1338.409605
 30
0.0
 40
3.0
1001
ACAD
1000
RTLwPs
1070
   128
  0
CIRCLE
  5
6CCA
100
AcDbEntity
  8
MSL-90-P25-R-0
 48
2.0
100
AcDbCircle
 10
927.220521
 20
1346.449605
 30
0.0
 40
3.0
1001
ACAD
1000
RTLwPs
1070
   128
  0
CIRCLE
  5
6CCB
100
AcDbEntity
  8
MSL-90-P25-R-0
 48
2.0
100
AcDbCircle
 10
927.220521
 20
1346.449605
 30
0.0
 40
4.365
1001
ACAD
1000
RTLwPs
1070
   128
  0
CIRCLE
  5
6CCC
100
AcDbEntity
  8
MSL-90-P25-R-0
 48
2.0
100
AcDbCircle
 10
941.220521
 20
1338.409605
 30
0.0
 40
4.365
1001
ACAD
1000
RTLwPs
1070
   128
  0
CIRCLE
  5
6CCD
100
AcDbEntity
  8
MSL-90-P25-R-0
 48
2.0
100
AcDbCircle
 10
941.220521
 20
1338.409605
 30
0.0
 40
5.1
1001
ACAD
1000
RTLwPs
1070
   128
  0
CIRCLE
  5
6CCE
100
AcDbEntity
  8
MSL-90-P25-R-0
 48
2.0
100
AcDbCircle
 10
941.220521
 20
1338.409605
 30
0.0
 40
7.0
1001
ACAD
1000
RTLwPs
1070
   128
  0
ARC
  5
6CCF
100
AcDbEntity
  8
MSL-90-P25-R-5
 48
2.0
100
AcDbCircle
 10
941.220521
 20
1338.409605
 30
0.0
 40
4.865
100
AcDbArc
 50
255.0
 51
195.0
1001
ACAD
1000
RTLwPs
1070
   128
  0
CIRCLE
  5
6CD0
100
AcDbEntity
  8
MSL-90-P25-R-0
 48
2.0
100
AcDbCircle
 10
927.220521
 20
1346.449605
 30
0.0
 40
5.1
1001
ACAD
1000
RTLwPs
1070
   128
  0
CIRCLE
  5
6CD1
100
AcDbEntity
  8
MSL-90-P25-R-0
 48
2.0
100
AcDbCircle
 10
927.220521
 20
1346.449605
 30
0.0
 40
7.0
1001
ACAD
1000
RTLwPs
1070
   128
  0
ARC
  5
6CD2
100
AcDbEntity
  8
MSL-90-P25-R-5
 48
2.0
100
AcDbCircle
 10
927.220521
 20
1346.449605
 30
0.0
 40
4.865
100
AcDbArc
 50
255.0
 51
195.0
1001
ACAD
1000
RTLwPs
1070
   128
  0
LINE
  5
6CD3
100
AcDbEntity
  8
MSL-90-P25-R-0
 48
2.0
100
AcDbLine
 10
985.970521
 20
1348.909605
 30
0.0
 11
982.970521
 21
1348.909605
 31
0.0
1001
ACAD
1000
RTLwPs
1070
   128
  0
LINE
  5
6CD4
100
AcDbEntity
  8
MSL-90-P25-R-0
 48
2.0
100
AcDbLine
 10
985.970521
 20
1348.909605
 30
0.0
 11
985.970521
 21
1360.909605
 31
0.0
1001
ACAD
1000
RTLwPs
1070
   128
  0
LINE
  5
6CD5
100
AcDbEntity
  8
MSL-90-P25-R-0
 48
2.0
100
AcDbLine
 10
982.970521
 20
1360.909605
 30
0.0
 11
982.970521
 21
1348.909605
 31
0.0
1001
ACAD
1000
RTLwPs
1070
   128
  0
LINE
  5
6CD6
100
AcDbEntity
  8
MSL-90-P25-R-0
 48
2.0
100
AcDbLine
 10
980.520521
 20
1360.909605
 30
0.0
 11
988.420521
 21
1360.909605
 31
0.0
1001
ACAD
1000
RTLwPs
1070
   128
  0
LINE
  5
6CD7
100
AcDbEntity
  8
MSL-90-P25-R-0
 48
2.0
100
AcDbLine
 10
988.420521
 20
1360.909605
 30
0.0
 11
988.420521
 21
1375.909605
 31
0.0
1001
ACAD
1000
RTLwPs
1070
   128
  0
LINE
  5
6CD8
100
AcDbEntity
  8
MSL-90-P25-R-0
 48
2.0
100
AcDbLine
 10
980.520521
 20
1375.909605
 30
0.0
 11
980.520521
 21
1360.909605
 31
0.0
1001
ACAD
1000
RTLwPs
1070
   128
  0
LINE
  5
6CD9
100
AcDbEntity
  8
MSL-90-P25-R-7A
 48
2.0
100
AcDbLine
 10
1021.545953
 20
1382.409605
 30
0.0
 11
898.487167
 21
1382.409605
 31
0.0
  0
LINE
  5
6CDA
100
AcDbEntity
  8
MSL-90-P25-R-0
 48
2.0
100
AcDbLine
 10
1014.220521
 20
1388.409605
 30
0.0
 11
1014.720521
 21
1387.909605
 31
0.0
  0
LINE
  5
6CDB
100
AcDbEntity
  8
MSL-90-P25-R-0
 48
2.0
100
AcDbLine
 10
1014.220521
 20
1376.409605
 30
0.0
 11
1014.720521
 21
1376.909605
 31
0.0
  0
LINE
  5
6CDC
100
AcDbEntity
  8
MSL-90-P25-R-0
 48
2.0
100
AcDbLine
 10
1014.720521
 20
1387.909605
 30
0.0
 11
1014.720521
 21
1376.909605
 31
0.0
  0
LINE
  5
6CDD
100
AcDbEntity
  8
MSL-90-P25-R-0
 48
2.0
100
AcDbLine
 10
1014.220521
 20
1376.409605
 30
0.0
 11
1014.220521
 21
1388.409605
 31
0.0
  0
LINE
  5
6CDE
100
AcDbEntity
  8
MSL-90-P25-R-0
 48
2.0
100
AcDbLine
 10
1007.720521
 20
1388.909605
 30
0.0
 11
1007.720521
 21
1388.409605
 31
0.0
  0
LINE
  5
6CDF
100
AcDbEntity
  8
MSL-90-P25-R-0
 48
2.0
100
AcDbLine
 10
1007.220521
 20
1389.409605
 30
0.0
 11
1007.720521
 21
1388.909605
 31
0.0
  0
LINE
  5
6CE0
100
AcDbEntity
  8
MSL-90-P25-R-0
 48
2.0
100
AcDbLine
 10
1007.720521
 20
1388.409605
 30
0.0
 11
1007.720521
 21
1382.409605
 31
0.0
  0
LINE
  5
6CE1
100
AcDbEntity
  8
MSL-90-P25-R-0
 48
2.0
100
AcDbLine
 10
1007.720521
 20
1375.909605
 30
0.0
 11
1007.720521
 21
1376.409605
 31
0.0
  0
LINE
  5
6CE2
100
AcDbEntity
  8
MSL-90-P25-R-0
 48
2.0
100
AcDbLine
 10
1007.220521
 20
1375.409605
 30
0.0
 11
1007.720521
 21
1375.909605
 31
0.0
  0
LINE
  5
6CE3
100
AcDbEntity
  8
MSL-90-P25-R-0
 48
2.0
100
AcDbLine
 10
1007.220521
 20
1375.409605
 30
0.0
 11
1007.220521
 21
1389.409605
 31
0.0
  0
LINE
  5
6CE4
100
AcDbEntity
  8
MSL-90-P25-R-0
 48
2.0
100
AcDbLine
 10
1007.720521
 20
1376.409605
 30
0.0
 11
1007.720521
 21
1382.409605
 31
0.0
  0
LINE
  5
6CE5
100
AcDbEntity
  8
MSL-90-P25-R-0
 48
2.0
100
AcDbLine
 10
988.720521
 20
1386.909605
 30
0.0
 11
988.720521
 21
1384.909605
 31
0.0
1001
ACAD
1000
RTLwPs
1070
   128
  0
LINE
  5
6CE6
100
AcDbEntity
  8
MSL-90-P25-R-0
 48
2.0
100
AcDbLine
 10
988.720521
 20
1375.909605
 30
0.0
 11
988.720521
 21
1384.909605
 31
0.0
1001
ACAD
1000
RTLwPs
1070
   128
  0
LINE
  5
6CE7
100
AcDbEntity
  8
MSL-90-P25-R-0
 48
2.0
100
AcDbLine
 10
988.420521
 20
1375.409605
 30
0.0
 11
1007.220521
 21
1375.409605
 31
0.0
  0
LINE
  5
6CE8
100
AcDbEntity
  8
MSL-90-P25-R-5
 48
2.0
100
AcDbLine
 10
1007.720521
 20
1375.909605
 30
0.0
 11
988.720521
 21
1375.909605
 31
0.0
  0
LINE
  5
6CE9
100
AcDbEntity
  8
MSL-90-P25-R-0
 48
2.0
100
AcDbLine
 10
1007.720521
 20
1376.409605
 30
0.0
 11
1014.220521
 21
1376.409605
 31
0.0
  0
LINE
  5
6CEA
100
AcDbEntity
  8
MSL-90-P25-R-0
 48
2.0
100
AcDbLine
 10
1007.720521
 20
1388.409605
 30
0.0
 11
1014.220521
 21
1388.409605
 31
0.0
  0
LINE
  5
6CEB
100
AcDbEntity
  8
MSL-90-P25-R-0
 48
2.0
100
AcDbLine
 10
980.220521
 20
1384.909605
 30
0.0
 11
980.220521
 21
1386.909605
 31
0.0
1001
ACAD
1000
RTLwPs
1070
   128
  0
LINE
  5
6CEC
100
AcDbEntity
  8
MSL-90-P25-R-0
 48
2.0
100
AcDbLine
 10
980.220521
 20
1384.409605
 30
0.0
 11
971.720521
 21
1384.409605
 31
0.0
1001
ACAD
1000
RTLwPs
1070
   128
  0
LINE
  5
6CED
100
AcDbEntity
  8
MSL-90-P25-R-0
 48
2.0
100
AcDbLine
 10
980.220521
 20
1375.909605
 30
0.0
 11
980.220521
 21
1380.409605
 31
0.0
1001
ACAD
1000
RTLwPs
1070
   128
  0
LINE
  5
6CEE
100
AcDbEntity
  8
MSL-90-P25-R-0
 48
2.0
100
AcDbLine
 10
971.720521
 20
1376.409605
 30
0.0
 11
980.220521
 21
1376.409605
 31
0.0
1001
ACAD
1000
RTLwPs
1070
   128
  0
LINE
  5
6CEF
100
AcDbEntity
  8
MSL-90-P25-R-0
 48
2.0
100
AcDbLine
 10
971.720521
 20
1376.409605
 30
0.0
 11
971.720521
 21
1384.409605
 31
0.0
1001
ACAD
1000
RTLwPs
1070
   128
  0
LINE
  5
6CF0
100
AcDbEntity
  8
MSL-90-P25-R-0
 48
2.0
100
AcDbLine
 10
980.220521
 20
1380.409605
 30
0.0
 11
980.220521
 21
1384.909605
 31
0.0
1001
ACAD
1000
RTLwPs
1070
   128
  0
LINE
  5
6CF1
100
AcDbEntity
  8
MSL-90-P25-R-0
 48
2.0
100
AcDbLine
 10
955.220521
 20
1389.770821
 30
0.0
 11
955.220521
 21
1384.409605
 31
0.0
1001
ACAD
1000
RTLwPs
1070
   128
  0
LINE
  5
6CF2
100
AcDbEntity
  8
MSL-90-P25-R-0
 48
2.0
100
AcDbLine
 10
955.220521
 20
1390.909605
 30
0.0
 11
954.741916
 21
1392.22456
 31
0.0
1001
ACAD
1000
RTLwPs
1070
   128
  0
LINE
  5
6CF3
100
AcDbEntity
  8
MSL-90-P25-R-0
 48
2.0
100
AcDbLine
 10
955.220521
 20
1389.770821
 30
0.0
 11
955.220521
 21
1390.909605
 31
0.0
1001
ACAD
1000
RTLwPs
1070
   128
  0
ARC
  5
6CF4
100
AcDbEntity
  8
MSL-90-P25-R-0
 48
2.0
100
AcDbCircle
 10
948.116344
 20
1389.882953
 30
0.0
 40
7.105062
100
AcDbArc
 50
338.830223
 51
359.095723
1001
ACAD
1000
RTLwPs
1070
   128
  0
ARC
  5
6CF5
100
AcDbEntity
  8
MSL-90-P25-R-0
 48
2.0
100
AcDbCircle
 10
928.291878
 20
1382.260452
 30
0.0
 40
26.929056
100
AcDbArc
 50
4.579884
 51
10.823023
1001
ACAD
1000
RTLwPs
1070
   128
  0
ARC
  5
6CF6
100
AcDbEntity
  8
MSL-90-P25-R-0
 48
2.0
100
AcDbCircle
 10
948.122587
 20
1389.659907
 30
0.0
 40
7.0988
100
AcDbArc
 50
0.895245
 51
21.17881
1001
ACAD
1000
RTLwPs
1070
   128
  0
LINE
  5
6CF7
100
AcDbEntity
  8
MSL-90-P25-R-0
 48
2.0
100
AcDbLine
 10
955.220521
 20
1376.409605
 30
0.0
 11
955.220521
 21
1375.048389
 31
0.0
1001
ACAD
1000
RTLwPs
1070
   128
  0
LINE
  5
6CF8
100
AcDbEntity
  8
MSL-90-P25-R-0
 48
2.0
100
AcDbLine
 10
955.220521
 20
1375.048389
 30
0.0
 11
955.220521
 21
1373.909605
 31
0.0
1001
ACAD
1000
RTLwPs
1070
   128
  0
ARC
  5
6CF9
100
AcDbEntity
  8
MSL-90-P25-R-0
 48
2.0
100
AcDbCircle
 10
948.122587
 20
1374.937475
 30
0.0
 40
7.0988
100
AcDbArc
 50
0.895245
 51
11.987892
1001
ACAD
1000
RTLwPs
1070
   128
  0
LINE
  5
6CFA
100
AcDbEntity
  8
MSL-90-P25-R-0
 48
2.0
100
AcDbLine
 10
954.741916
 20
1372.594651
 30
0.0
 11
955.220521
 21
1373.909605
 31
0.0
1001
ACAD
1000
RTLwPs
1070
   128
  0
ARC
  5
6CFB
100
AcDbEntity
  8
MSL-90-P25-R-0
 48
2.0
100
AcDbCircle
 10
948.116344
 20
1375.160521
 30
0.0
 40
7.105062
100
AcDbArc
 50
338.830223
 51
359.095723
1001
ACAD
1000
RTLwPs
1070
   128
  0
LINE
  5
6CFC
100
AcDbEntity
  8
MSL-90-P25-R-0
 48
2.0
100
AcDbLine
 10
963.720521
 20
1376.409605
 30
0.0
 11
963.720521
 21
1384.409605
 31
0.0
1001
ACAD
1000
RTLwPs
1070
   128
  0
LINE
  5
6CFD
100
AcDbEntity
  8
MSL-90-P25-R-5
 48
2.0
100
AcDbLine
 10
980.220521
 20
1375.909605
 30
0.0
 11
955.220521
 21
1375.909605
 31
0.0
  0
LINE
  5
6CFE
100
AcDbEntity
  8
MSL-90-P25-R-0
 48
2.0
100
AcDbLine
 10
955.220521
 20
1375.409605
 30
0.0
 11
980.520521
 21
1375.409605
 31
0.0
  0
LINE
  5
6CFF
100
AcDbEntity
  8
MSL-90-P25-R-0
 48
2.0
100
AcDbLine
 10
971.720521
 20
1383.909605
 30
0.0
 11
963.720521
 21
1383.909605
 31
0.0
1001
ACAD
1000
RTLwPs
1070
   128
  0
LINE
  5
6D00
100
AcDbEntity
  8
MSL-90-P25-R-0
 48
2.0
100
AcDbLine
 10
963.720521
 20
1376.909605
 30
0.0
 11
971.720521
 21
1376.909605
 31
0.0
1001
ACAD
1000
RTLwPs
1070
   128
  0
LINE
  5
6D01
100
AcDbEntity
  8
MSL-90-P25-R-0
 48
2.0
100
AcDbLine
 10
950.220521
 20
1393.409605
 30
0.0
 11
950.220521
 21
1390.409605
 31
0.0
1001
ACAD
1000
RTLwPs
1070
   128
  0
LINE
  5
6D02
100
AcDbEntity
  8
MSL-90-P25-R-0
 48
2.0
100
AcDbLine
 10
951.220521
 20
1387.641656
 30
0.0
 11
950.220521
 21
1387.909605
 31
0.0
1001
ACAD
1000
RTLwPs
1070
   128
  0
ARC
  5
6D03
100
AcDbEntity
  8
MSL-90-P25-R-0
 48
2.0
100
AcDbCircle
 10
957.318455
 20
1389.881735
 30
0.0
 40
7.0988
100
AcDbArc
 50
180.895245
 51
196.951856
1001
ACAD
1000
RTLwPs
1070
   128
  0
LINE
  5
6D04
100
AcDbEntity
  8
MSL-90-P25-R-0
 48
2.0
100
AcDbLine
 10
950.699125
 20
1392.22456
 30
0.0
 11
950.220521
 21
1390.909605
 31
0.0
1001
ACAD
1000
RTLwPs
1070
   128
  0
ARC
  5
6D05
100
AcDbEntity
  8
MSL-90-P25-R-0
 48
2.0
100
AcDbCircle
 10
957.324698
 20
1389.658689
 30
0.0
 40
7.105062
100
AcDbArc
 50
158.830223
 51
179.095723
1001
ACAD
1000
RTLwPs
1070
   128
  0
LINE
  5
6D06
100
AcDbEntity
  8
MSL-90-P25-R-0
 48
2.0
100
AcDbLine
 10
950.220521
 20
1372.909605
 30
0.0
 11
951.220521
 21
1373.177555
 31
0.0
1001
ACAD
1000
RTLwPs
1070
   128
  0
LINE
  5
6D07
100
AcDbEntity
  8
MSL-90-P25-R-0
 48
2.0
100
AcDbLine
 10
950.552149
 20
1372.998465
 30
0.0
 11
950.699125
 21
1372.594651
 31
0.0
1001
ACAD
1000
RTLwPs
1070
   128
  0
ARC
  5
6D08
100
AcDbEntity
  8
MSL-90-P25-R-0
 48
2.0
100
AcDbCircle
 10
957.318455
 20
1375.159304
 30
0.0
 40
7.0988
100
AcDbArc
 50
197.722455
 51
201.17881
1001
ACAD
1000
RTLwPs
1070
   128
  0
LINE
  5
6D09
100
AcDbEntity
  8
MSL-90-P25-R-0
 48
2.0
100
AcDbLine
 10
951.220521
 20
1387.641656
 30
0.0
 11
951.220521
 21
1373.177555
 31
0.0
1001
ACAD
1000
RTLwPs
1070
   128
  0
LINE
  5
6D0A
100
AcDbEntity
  8
MSL-90-P25-R-0
 48
2.0
100
AcDbLine
 10
936.220521
 20
1390.409605
 30
0.0
 11
936.220521
 21
1393.409605
 31
0.0
1001
ACAD
1000
RTLwPs
1070
   128
  0
ARC
  5
6D0B
100
AcDbEntity
  8
MSL-90-P25-R-0
 48
2.0
100
AcDbCircle
 10
936.329201
 20
1387.770821
 30
0.0
 40
3.108681
100
AcDbArc
 50
127.878142
 51
232.121858
  0
LINE
  5
6D0C
100
AcDbEntity
  8
MSL-90-P25-R-0
 48
2.0
100
AcDbLine
 10
934.401449
 20
1390.209605
 30
0.0
 11
936.220521
 21
1390.209605
 31
0.0
  0
LINE
  5
6D0D
100
AcDbEntity
  8
MSL-90-P25-R-0
 48
2.0
100
AcDbLine
 10
934.420521
 20
1385.317082
 30
0.0
 11
936.220521
 21
1385.317082
 31
0.0
  0
POLYLINE
  5
6D0E
100
AcDbEntity
  8
MSL-90-P25-R-0
 48
2.0
100
AcDb2dPolyline
 66
     1
 10
0.0
 20
0.0
 30
0.0
  0
VERTEX
  5
6D0F
100
AcDbEntity
  8
MSL-90-P25-R-0
 48
2.0
100
AcDbVertex
100
AcDb2dVertex
 10
930.220521
 20
1387.909605
 30
0.0
  0
VERTEX
  5
6D10
100
AcDbEntity
  8
MSL-90-P25-R-0
 48
2.0
100
AcDbVertex
100
AcDb2dVertex
 10
931.220521
 20
1387.909605
 30
0.0
  0
VERTEX
  5
6D11
100
AcDbEntity
  8
MSL-90-P25-R-0
 48
2.0
100
AcDbVertex
100
AcDb2dVertex
 10
933.337401
 20
1388.615232
 30
0.0
  0
SEQEND
  5
6D12
100
AcDbEntity
  8
MSL-90-P25-R-0
 48
2.0
  0
POLYLINE
  5
6D13
100
AcDbEntity
  8
MSL-90-P25-R-0
 48
2.0
100
AcDb2dPolyline
 66
     1
 10
0.0
 20
0.0
 30
0.0
  0
VERTEX
  5
6D14
100
AcDbEntity
  8
MSL-90-P25-R-0
 48
2.0
100
AcDbVertex
100
AcDb2dVertex
 10
930.220521
 20
1376.909605
 30
0.0
  0
VERTEX
  5
6D15
100
AcDbEntity
  8
MSL-90-P25-R-0
 48
2.0
100
AcDbVertex
100
AcDb2dVertex
 10
931.220521
 20
1376.909605
 30
0.0
  0
VERTEX
  5
6D16
100
AcDbEntity
  8
MSL-90-P25-R-0
 48
2.0
100
AcDbVertex
100
AcDb2dVertex
 10
932.720521
 20
1376.409605
 30
0.0
  0
SEQEND
  5
6D17
100
AcDbEntity
  8
MSL-90-P25-R-0
 48
2.0
  0
LINE
  5
6D18
100
AcDbEntity
  8
MSL-90-P25-R-0
 48
2.0
100
AcDbLine
 10
936.220521
 20
1390.409605
 30
0.0
 11
936.220521
 21
1376.409605
 31
0.0
1001
ACAD
1000
RTLwPs
1070
   128
  0
LINE
  5
6D19
100
AcDbEntity
  8
MSL-90-P25-R-0
 48
2.0
100
AcDbLine
 10
936.220521
 20
1390.209605
 30
0.0
 11
936.220521
 21
1376.409605
 31
0.0
  0
LINE
  5
6D1A
100
AcDbEntity
  8
MSL-90-P25-R-0
 48
2.0
100
AcDbLine
 10
933.220521
 20
1387.770821
 30
0.0
 11
933.220521
 21
1376.409605
 31
0.0
  0
ARC
  5
6D1B
100
AcDbEntity
  8
MSL-90-P25-R-0
 48
2.0
100
AcDbCircle
 10
943.855243
 20
1380.409605
 30
0.0
 40
10.634722
100
AcDbArc
 50
152.518771
 51
202.09395
  0
POLYLINE
  5
6D1C
100
AcDbEntity
  8
MSL-90-P25-R-0
 48
2.0
100
AcDb2dPolyline
 66
     1
 10
0.0
 20
0.0
 30
0.0
  0
VERTEX
  5
6D1D
100
AcDbEntity
  8
MSL-90-P25-R-0
 48
2.0
100
AcDbVertex
100
AcDb2dVertex
 10
931.220521
 20
1387.909605
 30
0.0
  0
VERTEX
  5
6D1E
100
AcDbEntity
  8
MSL-90-P25-R-0
 48
2.0
100
AcDbVertex
100
AcDb2dVertex
 10
931.220521
 20
1376.909605
 30
0.0
  0
SEQEND
  5
6D1F
100
AcDbEntity
  8
MSL-90-P25-R-0
 48
2.0
  0
POLYLINE
  5
6D20
100
AcDbEntity
  8
MSL-90-P25-R-0
 48
2.0
100
AcDb2dPolyline
 66
     1
 10
0.0
 20
0.0
 30
0.0
  0
VERTEX
  5
6D21
100
AcDbEntity
  8
MSL-90-P25-R-0
 48
2.0
100
AcDbVertex
100
AcDb2dVertex
 10
930.220521
 20
1387.909605
 30
0.0
  0
VERTEX
  5
6D22
100
AcDbEntity
  8
MSL-90-P25-R-0
 48
2.0
100
AcDbVertex
100
AcDb2dVertex
 10
930.220521
 20
1376.909605
 30
0.0
  0
SEQEND
  5
6D23
100
AcDbEntity
  8
MSL-90-P25-R-0
 48
2.0
  0
LINE
  5
6D24
100
AcDbEntity
  8
MSL-90-P25-R-0
 48
2.0
100
AcDbLine
 10
936.220521
 20
1393.409605
 30
0.0
 11
950.220521
 21
1393.409605
 31
0.0
1001
ACAD
1000
RTLwPs
1070
   128
  0
LINE
  5
6D25
100
AcDbEntity
  8
MSL-90-P25-R-0
 48
2.0
100
AcDbLine
 10
950.220521
 20
1390.409605
 30
0.0
 11
936.220521
 21
1390.409605
 31
0.0
1001
ACAD
1000
RTLwPs
1070
   128
  0
LINE
  5
6D26
100
AcDbEntity
  8
MSL-90-P25-R-5
 48
2.0
100
AcDbLine
 10
951.220521
 20
1377.174605
 30
0.0
 11
963.720521
 21
1377.174605
 31
0.0
1001
ACAD
1000
RTLwPs
1070
   128
  0
LINE
  5
6D27
100
AcDbEntity
  8
MSL-90-P25-R-5
 48
2.0
100
AcDbLine
 10
951.220521
 20
1383.644605
 30
0.0
 11
963.720521
 21
1383.644605
 31
0.0
1001
ACAD
1000
RTLwPs
1070
   128
  0
LINE
  5
6D28
100
AcDbEntity
  8
MSL-90-P25-R-0
 48
2.0
100
AcDbLine
 10
951.220521
 20
1376.409605
 30
0.0
 11
963.720521
 21
1376.409605
 31
0.0
1001
ACAD
1000
RTLwPs
1070
   128
  0
LINE
  5
6D29
100
AcDbEntity
  8
MSL-90-P25-R-0
 48
2.0
100
AcDbLine
 10
963.720521
 20
1384.409605
 30
0.0
 11
951.220521
 21
1384.409605
 31
0.0
1001
ACAD
1000
RTLwPs
1070
   128
  0
LINE
  5
6D2A
100
AcDbEntity
  8
MSL-90-P25-R-0
 48
2.0
100
AcDbLine
 10
954.741916
 20
1387.317083
 30
0.0
 11
951.220521
 21
1387.317083
 31
0.0
1001
ACAD
1000
RTLwPs
1070
   128
  0
LINE
  5
6D2B
100
AcDbEntity
  8
MSL-90-P25-R-0
 48
2.0
100
AcDbLine
 10
954.741916
 20
1392.22456
 30
0.0
 11
950.699125
 21
1392.22456
 31
0.0
1001
ACAD
1000
RTLwPs
1070
   128
  0
LINE
  5
6D2C
100
AcDbEntity
  8
MSL-90-P25-R-0
 48
2.0
100
AcDbLine
 10
954.741916
 20
1372.594651
 30
0.0
 11
950.699125
 21
1372.594651
 31
0.0
1001
ACAD
1000
RTLwPs
1070
   128
  0
LINE
  5
6D2D
100
AcDbEntity
  8
MSL-90-P25-R-0
 48
2.0
100
AcDbLine
 10
955.220521
 20
1389.409605
 30
0.0
 11
1007.220521
 21
1389.409605
 31
0.0
  0
LINE
  5
6D2E
100
AcDbEntity
  8
MSL-90-P25-R-5
 48
2.0
100
AcDbLine
 10
1007.720521
 20
1388.909605
 30
0.0
 11
955.220521
 21
1388.909605
 31
0.0
  0
LINE
  5
6D2F
100
AcDbEntity
  8
MSL-90-P25-R-0
 48
2.0
100
AcDbLine
 10
980.220521
 20
1386.909605
 30
0.0
 11
988.720521
 21
1386.909605
 31
0.0
1001
ACAD
1000
RTLwPs
1070
   128
  0
LINE
  5
6D30
100
AcDbEntity
  8
MSL-90-P25-R-0
 48
2.0
100
AcDbLine
 10
988.720521
 20
1375.909605
 30
0.0
 11
980.220521
 21
1375.909605
 31
0.0
1001
ACAD
1000
RTLwPs
1070
   128
  0
LINE
  5
6D31
100
AcDbEntity
  8
MSL-90-P25-R-7A
 48
2.0
100
AcDbLine
 10
990.720521
 20
1380.409605
 30
0.0
 11
929.720521
 21
1380.409605
 31
0.0
  0
LINE
  5
6D32
100
AcDbEntity
  8
MSL-90-P25-R-5
 48
2.0
100
AcDbLine
 10
910.220521
 20
1382.409605
 30
0.0
 11
910.220521
 21
1386.735688
 31
0.0
  0
POLYLINE
  5
6D33
100
AcDbEntity
  8
MSL-90-P25-R-0
 48
2.0
100
AcDb2dPolyline
 66
     1
 10
0.0
 20
0.0
 30
0.0
  0
VERTEX
  5
6D34
100
AcDbEntity
  8
MSL-90-P25-R-0
 48
2.0
100
AcDbVertex
100
AcDb2dVertex
 10
913.720521
 20
1382.409605
 30
0.0
  0
VERTEX
  5
6D35
100
AcDbEntity
  8
MSL-90-P25-R-0
 48
2.0
100
AcDbVertex
100
AcDb2dVertex
 10
913.720521
 20
1387.159605
 30
0.0
  0
SEQEND
  5
6D36
100
AcDbEntity
  8
MSL-90-P25-R-0
 48
2.0
  0
LINE
  5
6D37
100
AcDbEntity
  8
MSL-90-P25-R-5
 48
2.0
100
AcDbLine
 10
910.220521
 20
1382.409605
 30
0.0
 11
910.220521
 21
1378.083523
 31
0.0
  0
POLYLINE
  5
6D38
100
AcDbEntity
  8
MSL-90-P25-R-0
 48
2.0
100
AcDb2dPolyline
 66
     1
 10
0.0
 20
0.0
 30
0.0
  0
VERTEX
  5
6D39
100
AcDbEntity
  8
MSL-90-P25-R-0
 48
2.0
100
AcDbVertex
100
AcDb2dVertex
 10
913.720521
 20
1382.409605
 30
0.0
  0
VERTEX
  5
6D3A
100
AcDbEntity
  8
MSL-90-P25-R-0
 48
2.0
100
AcDbVertex
100
AcDb2dVertex
 10
913.720521
 20
1377.659605
 30
0.0
  0
SEQEND
  5
6D3B
100
AcDbEntity
  8
MSL-90-P25-R-0
 48
2.0
  0
LINE
  5
6D3C
100
AcDbEntity
  8
MSL-90-P25-R-0
 48
2.0
100
AcDbLine
 10
903.720521
 20
1384.659605
 30
0.0
 11
903.220521
 21
1384.159605
 31
0.0
  0
POLYLINE
  5
6D3D
100
AcDbEntity
  8
MSL-90-P25-R-0
 48
2.0
100
AcDb2dPolyline
 66
     1
 10
0.0
 20
0.0
 30
0.0
  0
VERTEX
  5
6D3E
100
AcDbEntity
  8
MSL-90-P25-R-0
 48
2.0
100
AcDbVertex
100
AcDb2dVertex
 10
903.220521
 20
1382.409605
 30
0.0
  0
VERTEX
  5
6D3F
100
AcDbEntity
  8
MSL-90-P25-R-0
 48
2.0
100
AcDbVertex
100
AcDb2dVertex
 10
903.220521
 20
1384.159605
 30
0.0
  0
SEQEND
  5
6D40
100
AcDbEntity
  8
MSL-90-P25-R-0
 48
2.0
  0
POLYLINE
  5
6D41
100
AcDbEntity
  8
MSL-90-P25-R-0
 48
2.0
100
AcDb2dPolyline
 66
     1
 10
0.0
 20
0.0
 30
0.0
  0
VERTEX
  5
6D42
100
AcDbEntity
  8
MSL-90-P25-R-0
 48
2.0
100
AcDbVertex
100
AcDb2dVertex
 10
906.220521
 20
1382.409605
 30
0.0
  0
VERTEX
  5
6D43
100
AcDbEntity
  8
MSL-90-P25-R-0
 48
2.0
100
AcDbVertex
100
AcDb2dVertex
 10
906.220521
 20
1388.409605
 30
0.0
  0
SEQEND
  5
6D44
100
AcDbEntity
  8
MSL-90-P25-R-0
 48
2.0
  0
LINE
  5
6D45
100
AcDbEntity
  8
MSL-90-P25-R-0
 48
2.0
100
AcDbLine
 10
903.720521
 20
1380.159605
 30
0.0
 11
903.220521
 21
1380.659605
 31
0.0
  0
POLYLINE
  5
6D46
100
AcDbEntity
  8
MSL-90-P25-R-0
 48
2.0
100
AcDb2dPolyline
 66
     1
 10
0.0
 20
0.0
 30
0.0
  0
VERTEX
  5
6D47
100
AcDbEntity
  8
MSL-90-P25-R-0
 48
2.0
100
AcDbVertex
100
AcDb2dVertex
 10
906.220521
 20
1382.409605
 30
0.0
  0
VERTEX
  5
6D48
100
AcDbEntity
  8
MSL-90-P25-R-0
 48
2.0
100
AcDbVertex
100
AcDb2dVertex
 10
906.220521
 20
1376.409605
 30
0.0
  0
SEQEND
  5
6D49
100
AcDbEntity
  8
MSL-90-P25-R-0
 48
2.0
  0
POLYLINE
  5
6D4A
100
AcDbEntity
  8
MSL-90-P25-R-0
 48
2.0
100
AcDb2dPolyline
 66
     1
 10
0.0
 20
0.0
 30
0.0
  0
VERTEX
  5
6D4B
100
AcDbEntity
  8
MSL-90-P25-R-0
 48
2.0
100
AcDbVertex
100
AcDb2dVertex
 10
903.220521
 20
1382.409605
 30
0.0
  0
VERTEX
  5
6D4C
100
AcDbEntity
  8
MSL-90-P25-R-0
 48
2.0
100
AcDbVertex
100
AcDb2dVertex
 10
903.220521
 20
1380.659605
 30
0.0
  0
SEQEND
  5
6D4D
100
AcDbEntity
  8
MSL-90-P25-R-0
 48
2.0
  0
POLYLINE
  5
6D4E
100
AcDbEntity
  8
MSL-90-P25-R-0
 48
2.0
100
AcDb2dPolyline
 66
     1
 10
0.0
 20
0.0
 30
0.0
  0
VERTEX
  5
6D4F
100
AcDbEntity
  8
MSL-90-P25-R-0
 48
2.0
100
AcDbVertex
100
AcDb2dVertex
 10
903.720521
 20
1382.409605
 30
0.0
  0
VERTEX
  5
6D50
100
AcDbEntity
  8
MSL-90-P25-R-0
 48
2.0
100
AcDbVertex
100
AcDb2dVertex
 10
903.720521
 20
1378.909605
 30
0.0
  0
VERTEX
  5
6D51
100
AcDbEntity
  8
MSL-90-P25-R-0
 48
2.0
100
AcDbVertex
100
AcDb2dVertex
 10
906.220521
 20
1376.409605
 30
0.0
  0
VERTEX
  5
6D52
100
AcDbEntity
  8
MSL-90-P25-R-0
 48
2.0
100
AcDbVertex
100
AcDb2dVertex
 10
910.220521
 20
1376.409605
 30
0.0
  0
VERTEX
  5
6D53
100
AcDbEntity
  8
MSL-90-P25-R-0
 48
2.0
100
AcDbVertex
100
AcDb2dVertex
 10
910.220521
 20
1377.159605
 30
0.0
 42
-0.414214
  0
VERTEX
  5
6D54
100
AcDbEntity
  8
MSL-90-P25-R-0
 48
2.0
100
AcDbVertex
100
AcDb2dVertex
 10
910.720521
 20
1377.659605
 30
0.0
  0
VERTEX
  5
6D55
100
AcDbEntity
  8
MSL-90-P25-R-0
 48
2.0
100
AcDbVertex
100
AcDb2dVertex
 10
913.720521
 20
1377.659605
 30
0.0
  0
VERTEX
  5
6D56
100
AcDbEntity
  8
MSL-90-P25-R-0
 48
2.0
100
AcDbVertex
100
AcDb2dVertex
 10
914.220521
 20
1378.159605
 30
0.0
  0
VERTEX
  5
6D57
100
AcDbEntity
  8
MSL-90-P25-R-0
 48
2.0
100
AcDbVertex
100
AcDb2dVertex
 10
914.220521
 20
1382.409605
 30
0.0
  0
SEQEND
  5
6D58
100
AcDbEntity
  8
MSL-90-P25-R-0
 48
2.0
  0
POLYLINE
  5
6D59
100
AcDbEntity
  8
MSL-90-P25-R-0
 48
2.0
100
AcDb2dPolyline
 66
     1
 10
0.0
 20
0.0
 30
0.0
  0
VERTEX
  5
6D5A
100
AcDbEntity
  8
MSL-90-P25-R-0
 48
2.0
100
AcDbVertex
100
AcDb2dVertex
 10
903.720521
 20
1382.409605
 30
0.0
  0
VERTEX
  5
6D5B
100
AcDbEntity
  8
MSL-90-P25-R-0
 48
2.0
100
AcDbVertex
100
AcDb2dVertex
 10
903.720521
 20
1385.909605
 30
0.0
  0
VERTEX
  5
6D5C
100
AcDbEntity
  8
MSL-90-P25-R-0
 48
2.0
100
AcDbVertex
100
AcDb2dVertex
 10
906.220521
 20
1388.409605
 30
0.0
  0
VERTEX
  5
6D5D
100
AcDbEntity
  8
MSL-90-P25-R-0
 48
2.0
100
AcDbVertex
100
AcDb2dVertex
 10
910.220521
 20
1388.409605
 30
0.0
  0
VERTEX
  5
6D5E
100
AcDbEntity
  8
MSL-90-P25-R-0
 48
2.0
100
AcDbVertex
100
AcDb2dVertex
 10
910.220521
 20
1387.659605
 30
0.0
 42
0.414214
  0
VERTEX
  5
6D5F
100
AcDbEntity
  8
MSL-90-P25-R-0
 48
2.0
100
AcDbVertex
100
AcDb2dVertex
 10
910.720521
 20
1387.159605
 30
0.0
  0
VERTEX
  5
6D60
100
AcDbEntity
  8
MSL-90-P25-R-0
 48
2.0
100
AcDbVertex
100
AcDb2dVertex
 10
913.720521
 20
1387.159605
 30
0.0
  0
VERTEX
  5
6D61
100
AcDbEntity
  8
MSL-90-P25-R-0
 48
2.0
100
AcDbVertex
100
AcDb2dVertex
 10
914.220521
 20
1386.659605
 30
0.0
  0
VERTEX
  5
6D62
100
AcDbEntity
  8
MSL-90-P25-R-0
 48
2.0
100
AcDbVertex
100
AcDb2dVertex
 10
914.220521
 20
1382.409605
 30
0.0
  0
SEQEND
  5
6D63
100
AcDbEntity
  8
MSL-90-P25-R-0
 48
2.0
  0
LINE
  5
6D64
100
AcDbEntity
  8
MSL-90-P25-R-0
 48
2.0
100
AcDbLine
 10
936.220521
 20
1376.409605
 30
0.0
 11
918.218356
 21
1376.409605
 31
0.0
1001
ACAD
1000
RTLwPs
1070
   128
  0
POLYLINE
  5
6D65
100
AcDbEntity
  8
MSL-90-P25-R-0
 48
2.0
100
AcDb2dPolyline
 66
     1
 10
0.0
 20
0.0
 30
0.0
  0
VERTEX
  5
6D66
100
AcDbEntity
  8
MSL-90-P25-R-0
 48
2.0
100
AcDbVertex
100
AcDb2dVertex
 10
913.720521
 20
1380.409605
 30
0.0
  0
VERTEX
  5
6D67
100
AcDbEntity
  8
MSL-90-P25-R-0
 48
2.0
100
AcDbVertex
100
AcDb2dVertex
 10
929.720521
 20
1380.409605
 30
0.0
  0
SEQEND
  5
6D68
100
AcDbEntity
  8
MSL-90-P25-R-0
 48
2.0
  0
POLYLINE
  5
6D69
100
AcDbEntity
  8
MSL-90-P25-R-0
 48
2.0
100
AcDb2dPolyline
 66
     1
 10
0.0
 20
0.0
 30
0.0
  0
VERTEX
  5
6D6A
100
AcDbEntity
  8
MSL-90-P25-R-0
 48
2.0
100
AcDbVertex
100
AcDb2dVertex
 10
914.220521
 20
1384.409605
 30
0.0
  0
VERTEX
  5
6D6B
100
AcDbEntity
  8
MSL-90-P25-R-0
 48
2.0
100
AcDbVertex
100
AcDb2dVertex
 10
930.220521
 20
1384.409605
 30
0.0
  0
SEQEND
  5
6D6C
100
AcDbEntity
  8
MSL-90-P25-R-0
 48
2.0
  0
LINE
  5
6D6D
100
AcDbEntity
  8
MSL-90-P25-R-0
 48
2.0
100
AcDbLine
 10
558.216192
 20
1389.409605
 30
0.0
 11
558.216192
 21
1375.409605
 31
0.0
  0
LINE
  5
6D6E
100
AcDbEntity
  8
MSL-90-P25-R-0
 48
2.0
100
AcDbLine
 10
557.716192
 20
1376.409605
 30
0.0
 11
557.716192
 21
1382.409605
 31
0.0
  0
LINE
  5
6D6F
100
AcDbEntity
  8
MSL-90-P25-R-0
 48
2.0
100
AcDbLine
 10
557.716192
 20
1388.409605
 30
0.0
 11
557.716192
 21
1382.409605
 31
0.0
  0
LINE
  5
6D70
100
AcDbEntity
  8
MSL-90-P25-R-0
 48
2.0
100
AcDbLine
 10
551.216192
 20
1388.409605
 30
0.0
 11
551.216192
 21
1376.409605
 31
0.0
  0
LINE
  5
6D71
100
AcDbEntity
  8
MSL-90-P25-R-5
 48
2.0
100
AcDbLine
 10
557.716192
 20
1388.909605
 30
0.0
 11
610.216192
 21
1388.909605
 31
0.0
  0
LINE
  5
6D72
100
AcDbEntity
  8
MSL-90-P25-R-5
 48
2.0
100
AcDbLine
 10
557.716192
 20
1375.909605
 30
0.0
 11
576.716192
 21
1375.909605
 31
0.0
  0
ARC
  5
6D73
100
AcDbEntity
  8
MSL-90-P25-R-0
 48
2.0
100
AcDbCircle
 10
645.509248
 20
1374.78044
 30
0.0
 40
2.293056
100
AcDbArc
 50
125.085847
 51
134.72621
  0
ARC
  5
6D74
100
AcDbEntity
  8
MSL-90-P25-R-0
 48
2.0
100
AcDbCircle
 10
647.423137
 20
1374.78044
 30
0.0
 40
2.293056
100
AcDbArc
 50
337.680533
 51
54.914152
  0
LINE
  5
6D75
100
AcDbEntity
  8
MSL-90-P25-R-0
 48
2.0
100
AcDbLine
 10
712.716192
 20
1395.409605
 30
0.0
 11
712.216192
 21
1395.909605
 31
0.0
  0
LINE
  5
6D76
100
AcDbEntity
  8
MSL-90-P25-R-0
 48
2.0
100
AcDbLine
 10
712.716192
 20
1393.909605
 30
0.0
 11
712.716192
 21
1395.409605
 31
0.0
  0
LINE
  5
6D77
100
AcDbEntity
  8
MSL-90-P25-R-0
 48
2.0
100
AcDbLine
 10
703.216192
 20
1395.909605
 30
0.0
 11
702.716192
 21
1395.409605
 31
0.0
  0
LINE
  5
6D78
100
AcDbEntity
  8
MSL-90-P25-R-0
 48
2.0
100
AcDbLine
 10
702.716192
 20
1395.409605
 30
0.0
 11
702.716192
 21
1393.909605
 31
0.0
  0
LINE
  5
6D79
100
AcDbEntity
  8
MSL-90-P25-R-0
 48
2.0
100
AcDbLine
 10
712.216192
 20
1395.909605
 30
0.0
 11
703.216192
 21
1395.909605
 31
0.0
  0
LINE
  5
6D7A
100
AcDbEntity
  8
MSL-90-P25-R-0
 48
2.0
100
AcDbLine
 10
702.716192
 20
1395.409605
 30
0.0
 11
712.716192
 21
1395.409605
 31
0.0
  0
LINE
  5
6D7D
100
AcDbEntity
  8
MSL-90-P25-R-7A
 48
2.0
100
AcDbLine
 10
707.716192
 20
1397.236724
 30
0.0
 11
707.716192
 21
1380.909605
 31
0.0
  0
LINE
  5
6D7E
100
AcDbEntity
  8
MSL-90-P25-R-7A
 48
2.0
100
AcDbLine
 10
732.716192
 20
1397.236724
 30
0.0
 11
732.716192
 21
1380.909605
 31
0.0
  0
LINE
  5
6D80
100
AcDbEntity
  8
MSL-90-P25-R-7A
 48
2.0
100
AcDbLine
 10
836.870017
 20
1380.409605
 30
0.0
 11
814.660195
 21
1380.409605
 31
0.0
  0
LINE
  5
6D81
100
AcDbEntity
  8
MSL-90-P25-R-7A
 48
2.0
100
AcDbLine
 10
547.39076
 20
1382.409605
 30
0.0
 11
654.945986
 21
1382.409605
 31
0.0
  0
LINE
  5
6D82
100
AcDbEntity
  8
MSL-90-P25-R-7A
 48
2.0
100
AcDbLine
 10
578.216192
 20
1380.409605
 30
0.0
 11
662.945986
 21
1380.409605
 31
0.0
  0
LINE
  5
6D83
100
AcDbEntity
  8
MSL-90-P25-R-0
 48
2.0
100
AcDbLine
 10
632.216191
 20
1376.409605
 30
0.0
 11
632.216191
 21
1387.770821
 31
0.0
  0
LINE
  5
6D84
100
AcDbEntity
  8
MSL-90-P25-R-0
 48
2.0
100
AcDbLine
 10
629.216191
 20
1390.209605
 30
0.0
 11
631.035263
 21
1390.209605
 31
0.0
  0
ARC
  5
6D85
100
AcDbEntity
  8
MSL-90-P25-R-0
 48
2.0
100
AcDbCircle
 10
629.107511
 20
1387.770821
 30
0.0
 40
3.108681
100
AcDbArc
 50
307.878142
 51
52.121858
  0
LINE
  5
6D86
100
AcDbEntity
  8
MSL-90-P25-R-0
 48
2.0
100
AcDbLine
 10
631.016191
 20
1385.317082
 30
0.0
 11
629.216191
 21
1385.317082
 31
0.0
  0
ARC
  5
6D87
100
AcDbEntity
  8
MSL-90-P25-R-0
 48
2.0
100
AcDbCircle
 10
621.581469
 20
1380.409605
 30
0.0
 40
10.634722
100
AcDbArc
 50
337.90605
 51
27.481229
  0
LINE
  5
6D88
100
AcDbEntity
  8
MSL-90-P25-R-0
 48
2.0
100
AcDbLine
 10
832.398691
 20
1376.65258
 30
0.0
 11
829.216191
 21
1376.65258
 31
0.0
  0
LINE
  5
6D89
100
AcDbEntity
  8
MSL-90-P25-R-0
 48
2.0
100
AcDbLine
 10
832.398691
 20
1384.158134
 30
0.0
 11
829.216191
 21
1384.158134
 31
0.0
  0
ARC
  5
6D8A
100
AcDbEntity
  8
MSL-90-P25-R-0
 48
2.0
100
AcDbCircle
 10
824.193782
 20
1380.405357
 30
0.0
 40
9.02241
100
AcDbArc
 50
335.421502
 51
24.578498
  0
ARC
  5
6D8B
100
AcDbEntity
  8
MSL-90-P25-R-0
 48
2.0
100
AcDbCircle
 10
814.506469
 20
1380.409605
 30
0.0
 40
7.709722
100
AcDbArc
 50
330.872216
 51
29.127784
  0
LINE
  5
6D8C
100
AcDbEntity
  8
MSL-90-P25-R-0
 48
2.0
100
AcDbLine
 10
821.241191
 20
1376.656828
 30
0.0
 11
816.691191
 21
1376.656828
 31
0.0
  0
LINE
  5
6D8D
100
AcDbEntity
  8
MSL-90-P25-R-0
 48
2.0
100
AcDbLine
 10
822.216191
 20
1376.409605
 30
0.0
 11
829.216191
 21
1376.409605
 31
0.0
  0
LINE
  5
6D8E
100
AcDbEntity
  8
MSL-90-P25-R-0
 48
2.0
100
AcDbLine
 10
821.241191
 20
1384.162382
 30
0.0
 11
816.691191
 21
1384.162382
 31
0.0
  0
LINE
  5
6D8F
100
AcDbEntity
  8
MSL-90-P25-R-0
 48
2.0
100
AcDbLine
 10
829.216191
 20
1384.409605
 30
0.0
 11
822.216191
 21
1384.409605
 31
0.0
  0
LINE
  5
6D90
100
AcDbEntity
  8
MSL-90-P25-R-0
 48
2.0
100
AcDbLine
 10
832.398691
 20
1387.910911
 30
0.0
 11
829.216191
 21
1387.910911
 31
0.0
  0
LINE
  5
6D91
100
AcDbEntity
  8
MSL-90-P25-R-0
 48
2.0
100
AcDbLine
 10
821.241191
 20
1387.915159
 30
0.0
 11
816.691191
 21
1387.915159
 31
0.0
  0
LINE
  5
6D92
100
AcDbEntity
  8
MSL-90-P25-R-0
 48
2.0
100
AcDbLine
 10
833.216191
 20
1386.034522
 30
0.0
 11
833.216191
 21
1374.776192
 31
0.0
  0
ARC
  5
6D93
100
AcDbEntity
  8
MSL-90-P25-R-0
 48
2.0
100
AcDbCircle
 10
830.654026
 20
1386.034522
 30
0.0
 40
2.562165
100
AcDbArc
 50
312.916662
 51
47.083338
  0
LINE
  5
6D94
100
AcDbEntity
  8
MSL-90-P25-R-0
 48
2.0
100
AcDbLine
 10
822.216191
 20
1374.78044
 30
0.0
 11
822.216191
 21
1386.03877
 31
0.0
  0
ARC
  5
6D95
100
AcDbEntity
  8
MSL-90-P25-R-0
 48
2.0
100
AcDbCircle
 10
819.923136
 20
1386.03877
 30
0.0
 40
2.293056
100
AcDbArc
 50
305.085847
 51
54.914153
  0
LINE
  5
6D96
100
AcDbEntity
  8
MSL-90-P25-R-0
 48
2.0
100
AcDbLine
 10
829.216191
 20
1387.910911
 30
0.0
 11
829.216191
 21
1373.909605
 31
0.0
  0
LINE
  5
6D97
100
AcDbEntity
  8
MSL-90-P25-R-0
 48
2.0
100
AcDbLine
 10
815.716191
 20
1384.409605
 30
0.0
 11
815.716191
 21
1376.409605
 31
0.0
  0
LINE
  5
6D98
100
AcDbEntity
  8
MSL-90-P25-R-0
 48
2.0
100
AcDbLine
 10
815.716191
 20
1374.78044
 30
0.0
 11
815.716191
 21
1386.03877
 31
0.0
  0
ARC
  5
6D99
100
AcDbEntity
  8
MSL-90-P25-R-0
 48
2.0
100
AcDbCircle
 10
823.425914
 20
1380.409605
 30
0.0
 40
7.709722
100
AcDbArc
 50
150.872218
 51
209.127782
  0
ARC
  5
6D9A
100
AcDbEntity
  8
MSL-90-P25-R-0
 48
2.0
100
AcDbCircle
 10
818.009247
 20
1374.78044
 30
0.0
 40
2.293056
100
AcDbArc
 50
125.085848
 51
202.319467
  0
ARC
  5
6D9B
100
AcDbEntity
  8
MSL-90-P25-R-0
 48
2.0
100
AcDbCircle
 10
818.009247
 20
1386.03877
 30
0.0
 40
2.293056
100
AcDbArc
 50
125.085848
 51
234.914152
  0
LINE
  5
6D9C
100
AcDbEntity
  8
MSL-90-P25-R-0
 48
2.0
100
AcDbLine
 10
632.216192
 20
1386.034522
 30
0.0
 11
632.216191
 21
1376.409605
 31
0.0
  0
LINE
  5
6D9D
100
AcDbEntity
  8
MSL-90-P25-R-0
 48
2.0
100
AcDbLine
 10
632.216191
 20
1376.409605
 30
0.0
 11
632.216191
 21
1386.03877
 31
0.0
  0
LINE
  5
6D9E
100
AcDbEntity
  8
MSL-90-P25-R-0
 48
2.0
100
AcDbLine
 10
633.033692
 20
1384.158134
 30
0.0
 11
636.216192
 21
1384.158134
 31
0.0
  0
LINE
  5
6D9F
100
AcDbEntity
  8
MSL-90-P25-R-0
 48
2.0
100
AcDbLine
 10
633.033692
 20
1387.910911
 30
0.0
 11
636.216192
 21
1387.910911
 31
0.0
  0
LINE
  5
6DA0
100
AcDbEntity
  8
MSL-90-P25-R-0
 48
2.0
100
AcDbLine
 10
633.033692
 20
1376.65258
 30
0.0
 11
636.216192
 21
1376.65258
 31
0.0
  0
LINE
  5
6DA1
100
AcDbEntity
  8
MSL-90-P25-R-0
 48
2.0
100
AcDbLine
 10
636.216192
 20
1387.910911
 30
0.0
 11
636.216192
 21
1376.409605
 31
0.0
  0
ARC
  5
6DA2
100
AcDbEntity
  8
MSL-90-P25-R-0
 48
2.0
100
AcDbCircle
 10
634.778357
 20
1374.776192
 30
0.0
 40
2.562165
100
AcDbArc
 50
132.916662
 51
140.393398
  0
ARC
  5
6DA3
100
AcDbEntity
  8
MSL-90-P25-R-0
 48
2.0
100
AcDbCircle
 10
641.238601
 20
1380.405357
 30
0.0
 40
9.02241
100
AcDbArc
 50
155.421502
 51
204.578498
  0
ARC
  5
6DA4
100
AcDbEntity
  8
MSL-90-P25-R-0
 48
2.0
100
AcDbCircle
 10
634.778357
 20
1386.034522
 30
0.0
 40
2.562165
100
AcDbArc
 50
132.916662
 51
227.083338
  0
LINE
  5
6DA5
100
AcDbEntity
  8
MSL-90-P25-R-0
 48
2.0
100
AcDbLine
 10
636.216192
 20
1384.409605
 30
0.0
 11
643.216193
 21
1384.409605
 31
0.0
  0
LINE
  5
6DA6
100
AcDbEntity
  8
MSL-90-P25-R-5
 48
2.0
100
AcDbLine
 10
643.216193
 20
1383.659605
 30
0.0
 11
636.216192
 21
1383.659605
 31
0.0
  0
LINE
  5
6DA7
100
AcDbEntity
  8
MSL-90-P25-R-5
 48
2.0
100
AcDbLine
 10
643.216193
 20
1377.159605
 30
0.0
 11
636.216192
 21
1377.159605
 31
0.0
  0
LINE
  5
6DA8
100
AcDbEntity
  8
MSL-90-P25-R-0
 48
2.0
100
AcDbLine
 10
640.216192
 20
1376.409605
 30
0.0
 11
636.216192
 21
1376.409605
 31
0.0
  0
ARC
  5
6DA9
100
AcDbEntity
  8
MSL-90-P25-R-0
 48
2.0
100
AcDbCircle
 10
650.925915
 20
1380.409605
 30
0.0
 40
7.709722
100
AcDbArc
 50
150.872216
 51
209.127784
  0
ARC
  5
6DAA
100
AcDbEntity
  8
MSL-90-P25-R-0
 48
2.0
100
AcDbCircle
 10
645.509248
 20
1386.03877
 30
0.0
 40
2.293056
100
AcDbArc
 50
125.085847
 51
234.914153
  0
LINE
  5
6DAB
100
AcDbEntity
  8
MSL-90-P25-R-0
 48
2.0
100
AcDbLine
 10
643.216193
 20
1376.409605
 30
0.0
 11
643.216193
 21
1386.03877
 31
0.0
  0
LINE
  5
6DAC
100
AcDbEntity
  8
MSL-90-P25-R-0
 48
2.0
100
AcDbLine
 10
649.716193
 20
1386.03877
 30
0.0
 11
649.710963
 21
1374.935222
 31
0.0
  0
LINE
  5
6DAD
100
AcDbEntity
  8
MSL-90-P25-R-0
 48
2.0
100
AcDbLine
 10
649.716193
 20
1374.78044
 30
0.0
 11
649.716193
 21
1386.03877
 31
0.0
  0
ARC
  5
6DAE
100
AcDbEntity
  8
MSL-90-P25-R-0
 48
2.0
100
AcDbCircle
 10
642.00647
 20
1380.409605
 30
0.0
 40
7.709722
100
AcDbArc
 50
330.872218
 51
29.127782
  0
ARC
  5
6DAF
100
AcDbEntity
  8
MSL-90-P25-R-0
 48
2.0
100
AcDbCircle
 10
647.423137
 20
1386.03877
 30
0.0
 40
2.293056
100
AcDbArc
 50
305.085848
 51
54.914152
  0
LINE
  5
6DB0
100
AcDbEntity
  8
MSL-90-P25-R-0
 48
2.0
100
AcDbLine
 10
644.191193
 20
1384.162382
 30
0.0
 11
648.741193
 21
1384.162382
 31
0.0
  0
LINE
  5
6DB1
100
AcDbEntity
  8
MSL-90-P25-R-0
 48
2.0
100
AcDbLine
 10
644.191193
 20
1376.656828
 30
0.0
 11
648.741193
 21
1376.656828
 31
0.0
  0
LINE
  5
6DB2
100
AcDbEntity
  8
MSL-90-P25-R-0
 48
2.0
100
AcDbLine
 10
644.191193
 20
1387.915159
 30
0.0
 11
648.741193
 21
1387.915159
 31
0.0
  0
LINE
  5
6DB3
100
AcDbEntity
  8
MSL-90-P25-R-0
 48
2.0
100
AcDbLine
 10
614.737588
 20
1372.594651
 30
0.0
 11
614.884564
 21
1372.998465
 31
0.0
1001
ACAD
1000
RTLwPs
1070
   128
  0
LINE
  5
6DB4
100
AcDbEntity
  8
MSL-90-P25-R-0
 48
2.0
100
AcDbLine
 10
610.694796
 20
1392.22456
 30
0.0
 11
610.216192
 21
1390.909605
 31
0.0
1001
ACAD
1000
RTLwPs
1070
   128
  0
LINE
  5
6DB5
100
AcDbEntity
  8
MSL-90-P25-R-0
 48
2.0
100
AcDbLine
 10
610.216192
 20
1375.048389
 30
0.0
 11
610.216192
 21
1376.409605
 31
0.0
1001
ACAD
1000
RTLwPs
1070
   128
  0
LINE
  5
6DB6
100
AcDbEntity
  8
MSL-90-P25-R-0
 48
2.0
100
AcDbLine
 10
610.216192
 20
1375.048389
 30
0.0
 11
610.216192
 21
1373.909605
 31
0.0
1001
ACAD
1000
RTLwPs
1070
   128
  0
ARC
  5
6DB7
100
AcDbEntity
  8
MSL-90-P25-R-0
 48
2.0
100
AcDbCircle
 10
617.314126
 20
1375.159304
 30
0.0
 40
7.0988
100
AcDbArc
 50
180.895245
 51
201.17881
1001
ACAD
1000
RTLwPs
1070
   128
  0
ARC
  5
6DB8
100
AcDbEntity
  8
MSL-90-P25-R-0
 48
2.0
100
AcDbCircle
 10
617.320369
 20
1374.936258
 30
0.0
 40
7.105062
100
AcDbArc
 50
168.014245
 51
179.095723
1001
ACAD
1000
RTLwPs
1070
   128
  0
ARC
  5
6DB9
100
AcDbEntity
  8
MSL-90-P25-R-0
 48
2.0
100
AcDbCircle
 10
637.16186
 20
1382.258792
 30
0.0
 40
26.94609
100
AcDbArc
 50
169.180307
 51
175.419361
1001
ACAD
1000
RTLwPs
1070
   128
  0
ARC
  5
6DBA
100
AcDbEntity
  8
MSL-90-P25-R-0
 48
2.0
100
AcDbCircle
 10
617.314126
 20
1389.881735
 30
0.0
 40
7.0988
100
AcDbArc
 50
180.895245
 51
201.17881
1001
ACAD
1000
RTLwPs
1070
   128
  0
LINE
  5
6DBB
100
AcDbEntity
  8
MSL-90-P25-R-0
 48
2.0
100
AcDbLine
 10
610.216192
 20
1373.909605
 30
0.0
 11
610.694796
 21
1372.594651
 31
0.0
1001
ACAD
1000
RTLwPs
1070
   128
  0
ARC
  5
6DBC
100
AcDbEntity
  8
MSL-90-P25-R-0
 48
2.0
100
AcDbCircle
 10
608.112015
 20
1389.882953
 30
0.0
 40
7.105062
100
AcDbArc
 50
343.055145
 51
359.095723
1001
ACAD
1000
RTLwPs
1070
   128
  0
LINE
  5
6DBD
100
AcDbEntity
  8
MSL-90-P25-R-0
 48
2.0
100
AcDbLine
 10
615.216192
 20
1390.909605
 30
0.0
 11
614.737588
 21
1392.22456
 31
0.0
1001
ACAD
1000
RTLwPs
1070
   128
  0
ARC
  5
6DBE
100
AcDbEntity
  8
MSL-90-P25-R-0
 48
2.0
100
AcDbCircle
 10
608.118258
 20
1389.659907
 30
0.0
 40
7.0988
100
AcDbArc
 50
0.895245
 51
21.17881
1001
ACAD
1000
RTLwPs
1070
   128
  0
ARC
  5
6DBF
100
AcDbEntity
  8
MSL-90-P25-R-0
 48
2.0
100
AcDbCircle
 10
608.112015
 20
1375.160521
 30
0.0
 40
7.105062
100
AcDbArc
 50
338.830223
 51
342.283644
1001
ACAD
1000
RTLwPs
1070
   128
  0
LINE
  5
6DC0
100
AcDbEntity
  8
MSL-90-P25-R-0
 48
2.0
100
AcDbLine
 10
610.694796
 20
1372.594651
 30
0.0
 11
614.737588
 21
1372.594651
 31
0.0
1001
ACAD
1000
RTLwPs
1070
   128
  0
LINE
  5
6DC1
100
AcDbEntity
  8
MSL-90-P25-R-0
 48
2.0
100
AcDbLine
 10
610.694796
 20
1387.317083
 30
0.0
 11
614.216192
 21
1387.317083
 31
0.0
1001
ACAD
1000
RTLwPs
1070
   128
  0
LINE
  5
6DC2
100
AcDbEntity
  8
MSL-90-P25-R-0
 48
2.0
100
AcDbLine
 10
610.694796
 20
1392.22456
 30
0.0
 11
614.737588
 21
1392.22456
 31
0.0
1001
ACAD
1000
RTLwPs
1070
   128
  0
LINE
  5
6DC3
100
AcDbEntity
  8
MSL-90-P25-R-0
 48
2.0
100
AcDbLine
 10
610.216192
 20
1384.409605
 30
0.0
 11
610.216192
 21
1389.770821
 31
0.0
1001
ACAD
1000
RTLwPs
1070
   128
  0
ARC
  5
6DC4
100
AcDbEntity
  8
MSL-90-P25-R-0
 48
2.0
100
AcDbCircle
 10
617.320369
 20
1389.658689
 30
0.0
 40
7.105062
100
AcDbArc
 50
158.830223
 51
179.095723
1001
ACAD
1000
RTLwPs
1070
   128
  0
LINE
  5
6DC5
100
AcDbEntity
  8
MSL-90-P25-R-0
 48
2.0
100
AcDbLine
 10
610.216192
 20
1389.770821
 30
0.0
 11
610.216192
 21
1390.909605
 31
0.0
1001
ACAD
1000
RTLwPs
1070
   128
  0
LINE
  5
6DC6
100
AcDbEntity
  8
MSL-90-P25-R-0
 48
2.0
100
AcDbLine
 10
584.916192
 20
1360.909605
 30
0.0
 11
584.916192
 21
1375.909605
 31
0.0
1001
ACAD
1000
RTLwPs
1070
   128
  0
LINE
  5
6DC7
100
AcDbEntity
  8
MSL-90-P25-R-0
 48
2.0
100
AcDbLine
 10
577.016192
 20
1375.909605
 30
0.0
 11
577.016192
 21
1360.909605
 31
0.0
1001
ACAD
1000
RTLwPs
1070
   128
  0
LINE
  5
6DC8
100
AcDbEntity
  8
MSL-90-P25-R-0
 48
2.0
100
AcDbLine
 10
584.916192
 20
1360.909605
 30
0.0
 11
577.016192
 21
1360.909605
 31
0.0
1001
ACAD
1000
RTLwPs
1070
   128
  0
LINE
  5
6DC9
100
AcDbEntity
  8
MSL-90-P25-R-0
 48
2.0
100
AcDbLine
 10
579.466192
 20
1360.909605
 30
0.0
 11
579.466192
 21
1348.909605
 31
0.0
1001
ACAD
1000
RTLwPs
1070
   128
  0
LINE
  5
6DCA
100
AcDbEntity
  8
MSL-90-P25-R-0
 48
2.0
100
AcDbLine
 10
582.466192
 20
1348.909605
 30
0.0
 11
582.466192
 21
1360.909605
 31
0.0
1001
ACAD
1000
RTLwPs
1070
   128
  0
LINE
  5
6DCB
100
AcDbEntity
  8
MSL-90-P25-R-0
 48
2.0
100
AcDbLine
 10
582.466192
 20
1348.909605
 30
0.0
 11
579.466192
 21
1348.909605
 31
0.0
1001
ACAD
1000
RTLwPs
1070
   128
  0
LINE
  5
6DCC
100
AcDbEntity
  8
MSL-90-P25-R-0
 48
2.0
100
AcDbLine
 10
576.716192
 20
1384.909605
 30
0.0
 11
576.716192
 21
1386.909605
 31
0.0
1001
ACAD
1000
RTLwPs
1070
   128
  0
LINE
  5
6DCD
100
AcDbEntity
  8
MSL-90-P25-R-0
 48
2.0
100
AcDbLine
 10
585.216192
 20
1380.409605
 30
0.0
 11
585.216192
 21
1375.909605
 31
0.0
1001
ACAD
1000
RTLwPs
1070
   128
  0
LINE
  5
6DCE
100
AcDbEntity
  8
MSL-90-P25-R-0
 48
2.0
100
AcDbLine
 10
593.716192
 20
1384.409605
 30
0.0
 11
593.716192
 21
1376.409605
 31
0.0
1001
ACAD
1000
RTLwPs
1070
   128
  0
LINE
  5
6DCF
100
AcDbEntity
  8
MSL-90-P25-R-0
 48
2.0
100
AcDbLine
 10
576.716192
 20
1386.909605
 30
0.0
 11
585.216192
 21
1386.909605
 31
0.0
1001
ACAD
1000
RTLwPs
1070
   128
  0
LINE
  5
6DD0
100
AcDbEntity
  8
MSL-90-P25-R-0
 48
2.0
100
AcDbLine
 10
585.216192
 20
1386.909605
 30
0.0
 11
585.216192
 21
1384.909605
 31
0.0
1001
ACAD
1000
RTLwPs
1070
   128
  0
LINE
  5
6DD1
100
AcDbEntity
  8
MSL-90-P25-R-0
 48
2.0
100
AcDbLine
 10
585.216192
 20
1384.909605
 30
0.0
 11
585.216192
 21
1380.409605
 31
0.0
1001
ACAD
1000
RTLwPs
1070
   128
  0
LINE
  5
6DD2
100
AcDbEntity
  8
MSL-90-P25-R-0
 48
2.0
100
AcDbLine
 10
576.716192
 20
1384.909605
 30
0.0
 11
576.716192
 21
1375.909605
 31
0.0
1001
ACAD
1000
RTLwPs
1070
   128
  0
LINE
  5
6DD3
100
AcDbEntity
  8
MSL-90-P25-R-0
 48
2.0
100
AcDbLine
 10
585.216192
 20
1375.909605
 30
0.0
 11
576.716192
 21
1375.909605
 31
0.0
1001
ACAD
1000
RTLwPs
1070
   128
  0
LINE
  5
6DD4
100
AcDbEntity
  8
MSL-90-P25-R-0
 48
2.0
100
AcDbLine
 10
593.716192
 20
1384.409605
 30
0.0
 11
585.216192
 21
1384.409605
 31
0.0
1001
ACAD
1000
RTLwPs
1070
   128
  0
LINE
  5
6DD5
100
AcDbEntity
  8
MSL-90-P25-R-0
 48
2.0
100
AcDbLine
 10
585.216192
 20
1376.409605
 30
0.0
 11
593.716192
 21
1376.409605
 31
0.0
1001
ACAD
1000
RTLwPs
1070
   128
  0
LINE
  5
6DD6
100
AcDbEntity
  8
MSL-90-P25-R-0
 48
2.0
100
AcDbLine
 10
601.716192
 20
1383.909605
 30
0.0
 11
593.716192
 21
1383.909605
 31
0.0
1001
ACAD
1000
RTLwPs
1070
   128
  0
LINE
  5
6DD7
100
AcDbEntity
  8
MSL-90-P25-R-0
 48
2.0
100
AcDbLine
 10
614.216192
 20
1384.409605
 30
0.0
 11
601.716192
 21
1384.409605
 31
0.0
1001
ACAD
1000
RTLwPs
1070
   128
  0
LINE
  5
6DD8
100
AcDbEntity
  8
MSL-90-P25-R-0
 48
2.0
100
AcDbLine
 10
593.716192
 20
1376.909605
 30
0.0
 11
601.716192
 21
1376.909605
 31
0.0
1001
ACAD
1000
RTLwPs
1070
   128
  0
LINE
  5
6DD9
100
AcDbEntity
  8
MSL-90-P25-R-0
 48
2.0
100
AcDbLine
 10
601.716192
 20
1376.409605
 30
0.0
 11
614.216192
 21
1376.409605
 31
0.0
1001
ACAD
1000
RTLwPs
1070
   128
  0
LINE
  5
6DDA
100
AcDbEntity
  8
MSL-90-P25-R-0
 48
2.0
100
AcDbLine
 10
601.716192
 20
1384.409605
 30
0.0
 11
601.716192
 21
1376.409605
 31
0.0
1001
ACAD
1000
RTLwPs
1070
   128
  0
LINE
  5
6DDB
100
AcDbEntity
  8
MSL-90-P25-R-0
 48
2.0
100
AcDbLine
 10
614.216192
 20
1373.177555
 30
0.0
 11
615.216192
 21
1372.909605
 31
0.0
1001
ACAD
1000
RTLwPs
1070
   128
  0
LINE
  5
6DDC
100
AcDbEntity
  8
MSL-90-P25-R-0
 48
2.0
100
AcDbLine
 10
615.216192
 20
1387.909605
 30
0.0
 11
614.216192
 21
1387.641656
 31
0.0
1001
ACAD
1000
RTLwPs
1070
   128
  0
LINE
  5
6DDD
100
AcDbEntity
  8
MSL-90-P25-R-0
 48
2.0
100
AcDbLine
 10
614.216192
 20
1373.177555
 30
0.0
 11
614.216192
 21
1387.641656
 31
0.0
1001
ACAD
1000
RTLwPs
1070
   128
  0
LINE
  5
6DDE
100
AcDbEntity
  8
MSL-90-P25-R-0
 48
2.0
100
AcDbLine
 10
615.216192
 20
1390.409605
 30
0.0
 11
629.216192
 21
1390.409605
 31
0.0
1001
ACAD
1000
RTLwPs
1070
   128
  0
LINE
  5
6DDF
100
AcDbEntity
  8
MSL-90-P25-R-0
 48
2.0
100
AcDbLine
 10
615.216192
 20
1393.409605
 30
0.0
 11
615.216192
 21
1390.409605
 31
0.0
1001
ACAD
1000
RTLwPs
1070
   128
  0
LINE
  5
6DE0
100
AcDbEntity
  8
MSL-90-P25-R-0
 48
2.0
100
AcDbLine
 10
629.216192
 20
1393.409605
 30
0.0
 11
615.216192
 21
1393.409605
 31
0.0
1001
ACAD
1000
RTLwPs
1070
   128
  0
LINE
  5
6DE1
100
AcDbEntity
  8
MSL-90-P25-R-0
 48
2.0
100
AcDbLine
 10
629.216192
 20
1390.409605
 30
0.0
 11
629.216192
 21
1393.409605
 31
0.0
1001
ACAD
1000
RTLwPs
1070
   128
  0
LINE
  5
6DE2
100
AcDbEntity
  8
MSL-90-P25-R-0
 48
2.0
100
AcDbLine
 10
615.216192
 20
1309.409605
 30
0.0
 11
647.216192
 21
1309.409605
 31
0.0
1001
ACAD
1000
RTLwPs
1070
   128
  0
LINE
  5
6DE3
100
AcDbEntity
  8
MSL-90-P25-R-0
 48
2.0
100
AcDbLine
 10
615.216192
 20
1390.409605
 30
0.0
 11
615.216192
 21
1309.409605
 31
0.0
1001
ACAD
1000
RTLwPs
1070
   128
  0
LINE
  5
6DE4
100
AcDbEntity
  8
MSL-90-P25-R-0
 48
2.0
100
AcDbLine
 10
629.216192
 20
1376.409605
 30
0.0
 11
647.216192
 21
1376.409605
 31
0.0
1001
ACAD
1000
RTLwPs
1070
   128
  0
LINE
  5
6DE5
100
AcDbEntity
  8
MSL-90-P25-R-0
 48
2.0
100
AcDbLine
 10
629.216192
 20
1390.409605
 30
0.0
 11
629.216192
 21
1376.409605
 31
0.0
1001
ACAD
1000
RTLwPs
1070
   128
  0
LINE
  5
6DEB
100
AcDbEntity
  8
MSL-90-P25-R-7A
 48
2.0
100
AcDbLine
 10
782.716192
 20
1397.236724
 30
0.0
 11
782.716192
 21
1380.909605
 31
0.0
  0
LINE
  5
6DEC
100
AcDbEntity
  8
MSL-90-P25-R-7A
 48
2.0
100
AcDbLine
 10
707.716192
 20
1397.236724
 30
0.0
 11
707.716192
 21
1380.909605
 31
0.0
  0
LINE
  5
6DED
100
AcDbEntity
  8
MSL-90-P25-R-7A
 48
2.0
100
AcDbLine
 10
682.716192
 20
1397.236724
 30
0.0
 11
682.716192
 21
1380.909605
 31
0.0
  0
LINE
  5
6DEE
100
AcDbEntity
  8
MSL-90-P25-R-0
 48
2.0
100
AcDbLine
 10
610.216192
 20
1389.409605
 30
0.0
 11
558.216192
 21
1389.409605
 31
0.0
  0
LINE
  5
6DEF
100
AcDbEntity
  8
MSL-90-P25-R-0
 48
2.0
100
AcDbLine
 10
558.216192
 20
1389.409605
 30
0.0
 11
557.716192
 21
1388.909605
 31
0.0
  0
LINE
  5
6DF0
100
AcDbEntity
  8
MSL-90-P25-R-0
 48
2.0
100
AcDbLine
 10
557.716192
 20
1388.909605
 30
0.0
 11
557.716192
 21
1388.409605
 31
0.0
  0
LINE
  5
6DF1
100
AcDbEntity
  8
MSL-90-P25-R-0
 48
2.0
100
AcDbLine
 10
557.716192
 20
1388.409605
 30
0.0
 11
551.216192
 21
1388.409605
 31
0.0
  0
LINE
  5
6DF2
100
AcDbEntity
  8
MSL-90-P25-R-0
 48
2.0
100
AcDbLine
 10
551.216192
 20
1388.409605
 30
0.0
 11
550.716192
 21
1387.909605
 31
0.0
  0
LINE
  5
6DF3
100
AcDbEntity
  8
MSL-90-P25-R-0
 48
2.0
100
AcDbLine
 10
550.716192
 20
1387.909605
 30
0.0
 11
550.716192
 21
1382.409605
 31
0.0
  0
LINE
  5
6DF4
100
AcDbEntity
  8
MSL-90-P25-R-0
 48
2.0
100
AcDbLine
 10
610.216192
 20
1375.409605
 30
0.0
 11
584.916192
 21
1375.409605
 31
0.0
  0
LINE
  5
6DF5
100
AcDbEntity
  8
MSL-90-P25-R-0
 48
2.0
100
AcDbLine
 10
558.216192
 20
1375.409605
 30
0.0
 11
557.716192
 21
1375.909605
 31
0.0
  0
LINE
  5
6DF6
100
AcDbEntity
  8
MSL-90-P25-R-0
 48
2.0
100
AcDbLine
 10
557.716192
 20
1375.909605
 30
0.0
 11
557.716192
 21
1376.409605
 31
0.0
  0
LINE
  5
6DF7
100
AcDbEntity
  8
MSL-90-P25-R-0
 48
2.0
100
AcDbLine
 10
557.716192
 20
1376.409605
 30
0.0
 11
551.216192
 21
1376.409605
 31
0.0
  0
LINE
  5
6DF8
100
AcDbEntity
  8
MSL-90-P25-R-0
 48
2.0
100
AcDbLine
 10
551.216192
 20
1376.409605
 30
0.0
 11
550.716192
 21
1376.909605
 31
0.0
  0
LINE
  5
6DF9
100
AcDbEntity
  8
MSL-90-P25-R-0
 48
2.0
100
AcDbLine
 10
550.716192
 20
1376.909605
 30
0.0
 11
550.716192
 21
1382.409605
 31
0.0
  0
LINE
  5
6DFA
100
AcDbEntity
  8
MSL-90-P25-R-5
 48
2.0
100
AcDbLine
 10
585.216192
 20
1375.909605
 30
0.0
 11
610.216192
 21
1375.909605
 31
0.0
  0
LINE
  5
6DFB
100
AcDbEntity
  8
MSL-90-P25-R-0
 48
2.0
100
AcDbLine
 10
577.016192
 20
1375.409605
 30
0.0
 11
558.216192
 21
1375.409605
 31
0.0
  0
LINE
  5
6DFC
100
AcDbEntity
  8
MSL-90-P25-R-5
 48
2.0
100
AcDbLine
 10
601.716192
 20
1383.644605
 30
0.0
 11
614.216192
 21
1383.644605
 31
0.0
1001
ACAD
1000
RTLwPs
1070
   128
  0
LINE
  5
6DFD
100
AcDbEntity
  8
MSL-90-P25-R-5
 48
2.0
100
AcDbLine
 10
601.716192
 20
1377.174605
 30
0.0
 11
614.216192
 21
1377.174605
 31
0.0
1001
ACAD
1000
RTLwPs
1070
   128
  0
LINE
  5
6EAB
100
AcDbEntity
  8
MSL-90-P25-R-0
 48
2.0
100
AcDbLine
 10
647.216192
 20
1376.409605
 30
0.0
 11
647.216192
 21
1308.909605
 31
0.0
1001
ACAD
1000
RTLwPs
1070
   128
  0
LINE
  5
6EAC
100
AcDbEntity
  8
MSL-90-P25-R-0
 48
2.0
100
AcDbLine
 10
950.218356
 20
1390.409605
 30
0.0
 11
950.218356
 21
1309.409605
 31
0.0
1001
ACAD
1000
RTLwPs
1070
   128
  0
LINE
  5
6EAD
100
AcDbEntity
  8
MSL-90-P25-R-0
 48
2.0
100
AcDbLine
 10
918.218356
 20
1376.409605
 30
0.0
 11
918.218356
 21
1308.909605
 31
0.0
1001
ACAD
1000
RTLwPs
1070
   128
  0
LINE
  5
6EAE
100
AcDbEntity
  8
MSL-90-P25-R-0
 48
2.0
100
AcDbLine
 10
767.716192
 20
1377.909605
 30
0.0
 11
697.716192
 21
1377.909605
 31
0.0
1001
ACAD
1000
RTLwPs
1070
   128
  0
LINE
  5
6EAF
100
AcDbEntity
  8
MSL-90-P25-R-0
 48
2.0
100
AcDbLine
 10
767.716192
 20
1380.909605
 30
0.0
 11
697.716192
 21
1380.909605
 31
0.0
1001
ACAD
1000
RTLwPs
1070
   128
  0
LINE
  5
6EB0
100
AcDbEntity
  8
MSL-90-P25-R-0
 48
2.0
100
AcDbLine
 10
649.716192
 20
1393.409605
 30
0.0
 11
657.716192
 21
1393.409605
 31
0.0
1001
ACAD
1000
RTLwPs
1070
   128
  0
LINE
  5
6EB1
100
AcDbEntity
  8
MSL-90-P25-R-0
 48
2.0
100
AcDbLine
 10
649.716192
 20
1393.409605
 30
0.0
 11
649.716192
 21
1375.409605
 31
0.0
1001
ACAD
1000
RTLwPs
1070
   128
  0
LINE
  5
6EB2
100
AcDbEntity
  8
MSL-90-P25-R-0
 48
2.0
100
AcDbLine
 10
657.716192
 20
1375.409605
 30
0.0
 11
649.716192
 21
1375.409605
 31
0.0
1001
ACAD
1000
RTLwPs
1070
   128
  0
LINE
  5
6EB3
100
AcDbEntity
  8
MSL-90-P25-R-0
 48
2.0
100
AcDbLine
 10
649.716192
 20
1376.409605
 30
0.0
 11
657.716192
 21
1376.409605
 31
0.0
1001
ACAD
1000
RTLwPs
1070
   128
  0
LINE
  5
6EB4
100
AcDbEntity
  8
MSL-90-P25-R-0
 48
2.0
100
AcDbLine
 10
657.716192
 20
1392.409605
 30
0.0
 11
649.716192
 21
1392.409605
 31
0.0
1001
ACAD
1000
RTLwPs
1070
   128
  0
LINE
  5
6EB5
100
AcDbEntity
  8
MSL-90-P25-R-0
 48
2.0
100
AcDbLine
 10
815.716192
 20
1392.409605
 30
0.0
 11
807.716192
 21
1392.409605
 31
0.0
1001
ACAD
1000
RTLwPs
1070
   128
  0
LINE
  5
6EB6
100
AcDbEntity
  8
MSL-90-P25-R-0
 48
2.0
100
AcDbLine
 10
807.716192
 20
1376.409605
 30
0.0
 11
815.716192
 21
1376.409605
 31
0.0
1001
ACAD
1000
RTLwPs
1070
   128
  0
LINE
  5
6EB7
100
AcDbEntity
  8
MSL-90-P25-R-0
 48
2.0
100
AcDbLine
 10
815.716192
 20
1375.409605
 30
0.0
 11
815.716192
 21
1393.409605
 31
0.0
1001
ACAD
1000
RTLwPs
1070
   128
  0
LINE
  5
6EB8
100
AcDbEntity
  8
MSL-90-P25-R-0
 48
2.0
100
AcDbLine
 10
815.716192
 20
1375.409605
 30
0.0
 11
807.716192
 21
1375.409605
 31
0.0
1001
ACAD
1000
RTLwPs
1070
   128
  0
LINE
  5
6EB9
100
AcDbEntity
  8
MSL-90-P25-R-0
 48
2.0
100
AcDbLine
 10
807.716192
 20
1393.409605
 30
0.0
 11
815.716192
 21
1393.409605
 31
0.0
1001
ACAD
1000
RTLwPs
1070
   128
  0
ELLIPSE
  5
6EBA
100
AcDbEntity
  8
MSL-90-P25-R-0
 48
2.0
100
AcDbEllipse
 10
787.716192
 20
1369.883889
 30
0.0
 11
1.500000000000001
 21
0.0000000000000204
 31
0.0
210
0.0
220
0.0
230
1.0
 40
0.992546
 41
0.0
 42
3.141592653589793
1001
ACAD
1000
RTLwPs
1070
   128
  0
CIRCLE
  5
6EBB
100
AcDbEntity
  8
MSL-90-P25-R-0
 48
2.0
100
AcDbCircle
 10
787.716192
 20
1375.909605
 30
0.0
 40
1.604327
1001
ACAD
1000
RTLwPs
1070
   128
  0
CIRCLE
  5
6EBC
100
AcDbEntity
  8
MSL-90-P25-R-0
 48
2.0
100
AcDbCircle
 10
787.716192
 20
1375.909605
 30
0.0
 40
4.0
1001
ACAD
1000
RTLwPs
1070
   128
  0
CIRCLE
  5
6EBD
100
AcDbEntity
  8
MSL-90-P25-R-0
 48
2.0
100
AcDbCircle
 10
787.716192
 20
1375.909605
 30
0.0
 40
3.75
1001
ACAD
1000
RTLwPs
1070
   128
  0
CIRCLE
  5
6EBE
100
AcDbEntity
  8
MSL-90-P25-R-0
 48
2.0
100
AcDbCircle
 10
787.716192
 20
1375.909605
 30
0.0
 40
3.0
1001
ACAD
1000
RTLwPs
1070
   128
  0
LINE
  5
6EBF
100
AcDbEntity
  8
MSL-90-P25-R-0
 48
2.0
100
AcDbLine
 10
767.716192
 20
1357.409605
 30
0.0
 11
807.716192
 21
1357.409605
 31
0.0
1001
ACAD
1000
RTLwPs
1070
   128
  0
ELLIPSE
  5
6EC0
100
AcDbEntity
  8
MSL-90-P25-R-0
 48
2.0
100
AcDbEllipse
 10
787.716192
 20
1369.935551
 30
0.0
 11
0.0000000000000009
 21
1.511264738188272
 31
0.0
210
0.0
220
0.0
230
1.0
 40
0.992546
 41
0.0
 42
6.283185307179586
1001
ACAD
1000
RTLwPs
1070
   128
  0
CIRCLE
  5
6EC1
100
AcDbEntity
  8
MSL-90-P25-R-0
 48
2.0
100
AcDbCircle
 10
787.716192
 20
1375.909605
 30
0.0
 40
4.1
1001
ACAD
1000
RTLwPs
1070
   128
  0
LINE
  5
6EC2
100
AcDbEntity
  8
MSL-90-P25-R-0
 48
2.0
100
AcDbLine
 10
807.716192
 20
1357.409605
 30
0.0
 11
807.716192
 21
1382.909605
 31
0.0
1001
ACAD
1000
RTLwPs
1070
   128
  0
LINE
  5
6EC3
100
AcDbEntity
  8
MSL-90-P25-R-0
 48
2.0
100
AcDbLine
 10
767.716192
 20
1357.409605
 30
0.0
 11
767.716192
 21
1382.909605
 31
0.0
1001
ACAD
1000
RTLwPs
1070
   128
  0
ELLIPSE
  5
6EC4
100
AcDbEntity
  8
MSL-90-P25-R-0
 48
2.0
100
AcDbEllipse
 10
677.716192
 20
1369.883889
 30
0.0
 11
1.500000000000004
 21
0.000000000000298
 31
0.0
210
0.0
220
0.0
230
1.0
 40
0.992546
 41
0.0
 42
3.141592653589793
1001
ACAD
1000
RTLwPs
1070
   128
  0
CIRCLE
  5
6EC5
100
AcDbEntity
  8
MSL-90-P25-R-0
 48
2.0
100
AcDbCircle
 10
677.716192
 20
1375.909605
 30
0.0
 40
1.604327
1001
ACAD
1000
RTLwPs
1070
   128
  0
CIRCLE
  5
6EC6
100
AcDbEntity
  8
MSL-90-P25-R-0
 48
2.0
100
AcDbCircle
 10
677.716192
 20
1375.909605
 30
0.0
 40
4.0
1001
ACAD
1000
RTLwPs
1070
   128
  0
CIRCLE
  5
6EC7
100
AcDbEntity
  8
MSL-90-P25-R-0
 48
2.0
100
AcDbCircle
 10
677.716192
 20
1375.909605
 30
0.0
 40
3.0
1001
ACAD
1000
RTLwPs
1070
   128
  0
CIRCLE
  5
6EC8
100
AcDbEntity
  8
MSL-90-P25-R-0
 48
2.0
100
AcDbCircle
 10
677.716192
 20
1375.909605
 30
0.0
 40
3.75
1001
ACAD
1000
RTLwPs
1070
   128
  0
LINE
  5
6EC9
100
AcDbEntity
  8
MSL-90-P25-R-0
 48
2.0
100
AcDbLine
 10
657.716192
 20
1357.409605
 30
0.0
 11
697.716192
 21
1357.409605
 31
0.0
1001
ACAD
1000
RTLwPs
1070
   128
  0
ELLIPSE
  5
6ECA
100
AcDbEntity
  8
MSL-90-P25-R-0
 48
2.0
100
AcDbEllipse
 10
677.716192
 20
1369.935551
 30
0.0
 11
0.0000000000000012
 21
1.511264738188272
 31
0.0
210
0.0
220
0.0
230
1.0
 40
0.992546
 41
0.0
 42
6.283185307179586
1001
ACAD
1000
RTLwPs
1070
   128
  0
CIRCLE
  5
6ECB
100
AcDbEntity
  8
MSL-90-P25-R-0
 48
2.0
100
AcDbCircle
 10
677.716192
 20
1375.909605
 30
0.0
 40
4.1
1001
ACAD
1000
RTLwPs
1070
   128
  0
LINE
  5
6ECC
100
AcDbEntity
  8
MSL-90-P25-R-0
 48
2.0
100
AcDbLine
 10
697.716192
 20
1357.409605
 30
0.0
 11
697.716192
 21
1382.909605
 31
0.0
1001
ACAD
1000
RTLwPs
1070
   128
  0
LINE
  5
6ECD
100
AcDbEntity
  8
MSL-90-P25-R-0
 48
2.0
100
AcDbLine
 10
657.716192
 20
1357.409605
 30
0.0
 11
657.716192
 21
1382.909605
 31
0.0
1001
ACAD
1000
RTLwPs
1070
   128
  0
LINE
  5
6ECE
100
AcDbEntity
  8
MSL-90-P25-R-0
 48
2.0
100
AcDbLine
 10
807.716192
 20
1393.909605
 30
0.0
 11
807.716192
 21
1393.409605
 31
0.0
1001
ACAD
1000
RTLwPs
1070
   128
  0
LINE
  5
6ECF
100
AcDbEntity
  8
MSL-90-P25-R-0
 48
2.0
100
AcDbLine
 10
807.716192
 20
1393.409605
 30
0.0
 11
722.680856
 21
1393.409605
 31
0.0
1001
ACAD
1000
RTLwPs
1070
   128
  0
LINE
  5
6ED0
100
AcDbEntity
  8
MSL-90-P25-R-0
 48
2.0
100
AcDbLine
 10
657.716192
 20
1393.409605
 30
0.0
 11
657.716192
 21
1393.909605
 31
0.0
1001
ACAD
1000
RTLwPs
1070
   128
  0
LINE
  5
6ED1
100
AcDbEntity
  8
MSL-90-P25-R-0
 48
2.0
100
AcDbLine
 10
657.716192
 20
1393.909605
 30
0.0
 11
750.216192
 21
1393.909605
 31
0.0
1001
ACAD
1000
RTLwPs
1070
   128
  0
LINE
  5
6ED2
100
AcDbEntity
  8
MSL-90-P25-R-0
 48
2.0
100
AcDbLine
 10
657.716192
 20
1393.409605
 30
0.0
 11
657.716192
 21
1382.909605
 31
0.0
1001
ACAD
1000
RTLwPs
1070
   128
  0
LINE
  5
6ED3
100
AcDbEntity
  8
MSL-90-P25-R-0
 48
2.0
100
AcDbLine
 10
807.716192
 20
1382.909605
 30
0.0
 11
657.716192
 21
1382.909605
 31
0.0
1001
ACAD
1000
RTLwPs
1070
   128
  0
LINE
  5
6ED4
100
AcDbEntity
  8
MSL-90-P25-R-0
 48
2.0
100
AcDbLine
 10
807.716192
 20
1393.409605
 30
0.0
 11
807.716192
 21
1382.909605
 31
0.0
1001
ACAD
1000
RTLwPs
1070
   128
  0
LINE
  5
6ED5
100
AcDbEntity
  8
MSL-90-P25-R-0
 48
2.0
100
AcDbLine
 10
657.716192
 20
1373.909605
 30
0.0
 11
647.216192
 21
1373.909605
 31
0.0
1001
ACAD
1000
RTLwPs
1070
   128
  0
LINE
  5
6ED6
100
AcDbEntity
  8
MSL-90-P25-R-0
 48
2.0
100
AcDbLine
 10
767.716192
 20
1373.909605
 30
0.0
 11
697.716192
 21
1373.909605
 31
0.0
1001
ACAD
1000
RTLwPs
1070
   128
  0
LINE
  5
6ED7
100
AcDbEntity
  8
MSL-90-P25-R-0
 48
2.0
100
AcDbLine
 10
918.218356
 20
1373.909605
 30
0.0
 11
807.716192
 21
1373.909605
 31
0.0
1001
ACAD
1000
RTLwPs
1070
   128
  0
LINE
  5
6ED8
100
AcDbEntity
  8
MSL-90-P25-R-0
 48
2.0
100
AcDbLine
 10
918.218356
 20
1321.909605
 30
0.0
 11
647.216192
 21
1321.909605
 31
0.0
1001
ACAD
1000
RTLwPs
1070
   128
  0
LINE
  5
6ED9
100
AcDbEntity
  8
MSL-90-P25-R-0
 48
2.0
100
AcDbLine
 10
918.218356
 20
1308.909605
 30
0.0
 11
647.216192
 21
1308.909605
 31
0.0
1001
ACAD
1000
RTLwPs
1070
   128
  0
LINE
  5
6EDA
100
AcDbEntity
  8
MSL-90-P25-R-0
 48
2.0
100
AcDbLine
 10
918.218356
 20
1356.409605
 30
0.0
 11
647.216192
 21
1356.409605
 31
0.0
1001
ACAD
1000
RTLwPs
1070
   128
  0
LINE
  5
6EDB
100
AcDbEntity
  8
MSL-90-P25-R-0
 48
2.0
100
AcDbLine
 10
918.218356
 20
1352.409605
 30
0.0
 11
647.216192
 21
1352.409605
 31
0.0
1001
ACAD
1000
RTLwPs
1070
   128
  0
LINE
  5
6EDC
100
AcDbEntity
  8
MSL-90-P25-R-0
 48
2.0
100
AcDbLine
 10
657.716192
 20
1362.424836
 30
0.0
 11
647.216192
 21
1362.424836
 31
0.0
1001
ACAD
1000
RTLwPs
1070
   128
  0
LINE
  5
6EDD
100
AcDbEntity
  8
MSL-90-P25-R-0
 48
2.0
100
AcDbLine
 10
767.716192
 20
1362.424836
 30
0.0
 11
697.716192
 21
1362.424836
 31
0.0
1001
ACAD
1000
RTLwPs
1070
   128
  0
LINE
  5
6EDE
100
AcDbEntity
  8
MSL-90-P25-R-0
 48
2.0
100
AcDbLine
 10
918.218356
 20
1362.424836
 30
0.0
 11
807.716192
 21
1362.424836
 31
0.0
1001
ACAD
1000
RTLwPs
1070
   128
  0
LINE
  5
6F18
100
AcDbEntity
  8
MSL-90-P25-R-0
 48
2.0
100
AcDbLine
 10
722.680856
 20
1393.409605
 30
0.0
 11
657.716192
 21
1393.409605
 31
0.0
1001
ACAD
1000
RTLwPs
1070
   128
  0
LINE
  5
6F19
100
AcDbEntity
  8
MSL-90-P25-R-0
 48
2.0
100
AcDbLine
 10
750.216192
 20
1393.909605
 30
0.0
 11
807.716192
 21
1393.909605
 31
0.0
1001
ACAD
1000
RTLwPs
1070
   128
  0
LINE
  5
6FAD
100
AcDbEntity
  8
MSL-90-P25-R-7A
 48
2.0
100
AcDbLine
 10
812.561993
 20
1200.842027
 30
0.0
 11
927.763506
 21
1200.841477
 31
0.0
  0
POLYLINE
  5
6FE2
100
AcDbEntity
  8
MSL-90-P25-R-0
 48
2.0
100
AcDb2dPolyline
 66
     1
 10
0.0
 20
0.0
 30
0.0
  0
VERTEX
  5
6FE3
100
AcDbEntity
  8
MSL-90-P25-R-0
 48
2.0
100
AcDbVertex
100
AcDb2dVertex
 10
634.716192
 20
1254.341523
 30
0.0
  0
VERTEX
  5
6FE4
100
AcDbEntity
  8
MSL-90-P25-R-0
 48
2.0
100
AcDbVertex
100
AcDb2dVertex
 10
634.716192
 20
1260.841523
 30
0.0
  0
VERTEX
  5
6FE5
100
AcDbEntity
  8
MSL-90-P25-R-0
 48
2.0
100
AcDbVertex
100
AcDb2dVertex
 10
634.216192
 20
1261.341523
 30
0.0
  0
VERTEX
  5
6FE6
100
AcDbEntity
  8
MSL-90-P25-R-0
 48
2.0
100
AcDbVertex
100
AcDb2dVertex
 10
629.216192
 20
1261.341523
 30
0.0
  0
SEQEND
  5
6FE7
100
AcDbEntity
  8
MSL-90-P25-R-0
 48
2.0
  0
POLYLINE
  5
6FE8
100
AcDbEntity
  8
MSL-90-P25-R-0
 48
2.0
100
AcDb2dPolyline
 66
     1
 10
0.0
 20
0.0
 30
0.0
  0
VERTEX
  5
6FE9
100
AcDbEntity
  8
MSL-90-P25-R-0
 48
2.0
100
AcDbVertex
100
AcDb2dVertex
 10
637.716192
 20
1254.341523
 30
0.0
  0
VERTEX
  5
6FEA
100
AcDbEntity
  8
MSL-90-P25-R-0
 48
2.0
100
AcDbVertex
100
AcDb2dVertex
 10
637.716192
 20
1259.841523
 30
0.0
  0
SEQEND
  5
6FEB
100
AcDbEntity
  8
MSL-90-P25-R-0
 48
2.0
  0
POLYLINE
  5
6FEC
100
AcDbEntity
  8
MSL-90-P25-R-0
 48
2.0
100
AcDb2dPolyline
 66
     1
 10
0.0
 20
0.0
 30
0.0
  0
VERTEX
  5
6FED
100
AcDbEntity
  8
MSL-90-P25-R-0
 48
2.0
100
AcDbVertex
100
AcDb2dVertex
 10
638.716192
 20
1254.341523
 30
0.0
  0
VERTEX
  5
6FEE
100
AcDbEntity
  8
MSL-90-P25-R-0
 48
2.0
100
AcDbVertex
100
AcDb2dVertex
 10
638.716192
 20
1259.841523
 30
0.0
  0
SEQEND
  5
6FEF
100
AcDbEntity
  8
MSL-90-P25-R-0
 48
2.0
  0
POLYLINE
  5
6FF0
100
AcDbEntity
  8
MSL-90-P25-R-0
 48
2.0
100
AcDb2dPolyline
 66
     1
 10
0.0
 20
0.0
 30
0.0
  0
VERTEX
  5
6FF1
100
AcDbEntity
  8
MSL-90-P25-R-0
 48
2.0
100
AcDbVertex
100
AcDb2dVertex
 10
638.716192
 20
1259.841523
 30
0.0
  0
VERTEX
  5
6FF2
100
AcDbEntity
  8
MSL-90-P25-R-0
 48
2.0
100
AcDbVertex
100
AcDb2dVertex
 10
637.716192
 20
1259.841523
 30
0.0
  0
VERTEX
  5
6FF3
100
AcDbEntity
  8
MSL-90-P25-R-0
 48
2.0
100
AcDbVertex
100
AcDb2dVertex
 10
634.716192
 20
1260.841523
 30
0.0
  0
SEQEND
  5
6FF4
100
AcDbEntity
  8
MSL-90-P25-R-0
 48
2.0
  0
LINE
  5
6FF5
100
AcDbEntity
  8
MSL-90-P25-R-5
 48
2.0
100
AcDbLine
 10
629.216192
 20
1260.841523
 30
0.0
 11
634.716192
 21
1260.841523
 31
0.0
  0
LINE
  5
703F
100
AcDbEntity
  8
MSL-90-P25-R-7A
100
AcDbLine
 10
941.220521
 20
1346.409605
 30
0.0
 11
941.220521
 21
1330.409605
 31
0.0
  0
LINE
  5
7040
100
AcDbEntity
  8
MSL-90-P25-R-7A
100
AcDbLine
 10
949.220521
 20
1338.409605
 30
0.0
 11
933.220521
 21
1338.409605
 31
0.0
  0
LINE
  5
7057
100
AcDbEntity
  8
MSL-90-P25-R-7A
100
AcDbLine
 10
935.220521
 20
1346.411017
 30
0.0
 11
919.220521
 21
1346.411017
 31
0.0
  0
LINE
  5
7058
100
AcDbEntity
  8
MSL-90-P25-R-7A
100
AcDbLine
 10
927.220521
 20
1354.411017
 30
0.0
 11
927.220521
 21
1338.411017
 31
0.0
  0
LINE
  5
71D0
100
AcDbEntity
  8
MSL-90-P25-R-7A
 48
2.0
100
AcDbLine
 10
757.716192
 20
1397.236724
 30
0.0
 11
757.716192
 21
1380.909605
 31
0.0
  0
LINE
  5
71D1
100
AcDbEntity
  8
MSL-90-P25-R-0
 48
2.0
100
AcDbLine
 10
752.716192
 20
1395.409605
 30
0.0
 11
762.716192
 21
1395.409605
 31
0.0
  0
CIRCLE
  5
720A
100
AcDbEntity
  8
MSL-90-P25-R-0
 48
2.0
100
AcDbCircle
 10
757.716192
 20
1201.841523
 30
0.0
 40
5.0
1001
ACAD
1000
RTLwPs
1070
   128
  0
CIRCLE
  5
720B
100
AcDbEntity
  8
MSL-90-P25-R-0
 48
2.0
100
AcDbCircle
 10
707.716192
 20
1266.841523
 30
0.0
 40
5.0
1001
ACAD
1000
RTLwPs
1070
   128
  0
MTEXT
  5
75A0
100
AcDbEntity
  8
MSL-90-P25-R-6
100
AcDbMText
 10
648.789434
 20
1329.385
 30
0.0
 40
6.0
 41
78.0809
 71
     1
 72
     5
  1
MSL 90-P25-R-100
  0
ENDSEC
  0
SECTION
  2
OBJECTS
  0
DICTIONARY
  5
C
100
AcDbDictionary
  3
ACAD_GROUP
350
D
  3
ACAD_MLINESTYLE
350
E
  3
ACDBVARIABLEDICTIONARY
350
63C1
  0
DICTIONARY
  5
D
102
{ACAD_REACTORS
330
C
102
}
100
AcDbDictionary
  0
DICTIONARY
  5
E
102
{ACAD_REACTORS
330
C
102
}
100
AcDbDictionary
  3
STANDARD
350
1B
  0
DICTIONARY
  5
63C1
102
{ACAD_REACTORS
330
C
102
}
100
AcDbDictionary
  3
SORTENTS
350
63C2
  0
MLINESTYLE
  5
1B
102
{ACAD_REACTORS
330
E
102
}
100
AcDbMlineStyle
  2
STANDARD
 70
     0
  3

 62
     0
 51
90.0
 52
90.0
 71
     2
 49
0.5
 62
   256
  6
BYLAYER
 49
-0.5
 62
   256
  6
BYLAYER
  0
DICTIONARYVAR
  5
63C2
102
{ACAD_REACTORS
330
63C1
102
}
100
DictionaryVariables
280
     0
  1
96
  0
ENDSEC
  0
EOF
