  0
SECTION
  2
HEADER
  9
$ACADVER
  1
AC1015
  9
$ACADMAINTVER
 70
    20
  9
$DWGCODEPAGE
  3
ANSI_1252
  9
$INSBASE
 10
0.0
 20
0.0
 30
0.0
  9
$EXTMIN
 10
35.342709
 20
39.14295503527725
 30
-0.00000001
  9
$EXTMAX
 10
184.938416
 20
194.3932636783853
 30
0.00000001
  9
$LIMMIN
 10
0.0
 20
0.0
  9
$LIMMAX
 10
12.0
 20
9.0
  9
$ORTHOMODE
 70
     0
  9
$REGENMODE
 70
     1
  9
$FILLMODE
 70
     1
  9
$QTEXTMODE
 70
     0
  9
$MIRRTEXT
 70
     1
  9
$LTSCALE
 40
1.0
  9
$ATTMODE
 70
     1
  9
$TEXTSIZE
 40
1.5
  9
$TRACEWID
 40
0.05
  9
$TEXTSTYLE
  7
STANDARD
  9
$CLAYER
  8
MSR1-0
  9
$CELTYPE
  6
BYLAYER
  9
$CECOLOR
 62
   256
  9
$CELTSCALE
 40
1.0
  9
$DISPSILH
 70
     0
  9
$DIMSCALE
 40
1.0
  9
$DIMASZ
 40
2.5
  9
$DIMEXO
 40
1.0
  9
$DIMDLI
 40
7.0
  9
$DIMRND
 40
0.0
  9
$DIMDLE
 40
0.0
  9
$DIMEXE
 40
1.0
  9
$DIMTP
 40
0.1
  9
$DIMTM
 40
0.1
  9
$DIMTXT
 40
3.5
  9
$DIMCEN
 40
0.0
  9
$DIMTSZ
 40
0.0
  9
$DIMTOL
 70
     0
  9
$DIMLIM
 70
     0
  9
$DIMTIH
 70
     0
  9
$DIMTOH
 70
     0
  9
$DIMSE1
 70
     0
  9
$DIMSE2
 70
     0
  9
$DIMTAD
 70
     1
  9
$DIMZIN
 70
     0
  9
$DIMBLK
  1

  9
$DIMASO
 70
     1
  9
$DIMSHO
 70
     1
  9
$DIMPOST
  1
<>
  9
$DIMAPOST
  1

  9
$DIMALT
 70
     0
  9
$DIMALTD
 70
     2
  9
$DIMALTF
 40
0.0393701
  9
$DIMLFAC
 40
1.0
  9
$DIMTOFL
 70
     1
  9
$DIMTVP
 40
0.0
  9
$DIMTIX
 70
     0
  9
$DIMSOXD
 70
     0
  9
$DIMSAH
 70
     0
  9
$DIMBLK1
  1

  9
$DIMBLK2
  1

  9
$DIMSTYLE
  2
GEN-ISO
  9
$DIMCLRD
 70
   256
  9
$DIMCLRE
 70
   256
  9
$DIMCLRT
 70
     2
  9
$DIMTFAC
 40
0.71
  9
$DIMGAP
 40
0.6
  9
$DIMJUST
 70
     0
  9
$DIMSD1
 70
     0
  9
$DIMSD2
 70
     0
  9
$DIMTOLJ
 70
     0
  9
$DIMTZIN
 70
     0
  9
$DIMALTZ
 70
     0
  9
$DIMALTTZ
 70
     0
  9
$DIMUPT
 70
     0
  9
$DIMDEC
 70
     2
  9
$DIMTDEC
 70
     3
  9
$DIMALTU
 70
     2
  9
$DIMALTTD
 70
     4
  9
$DIMTXSTY
  7
STANDARD
  9
$DIMAUNIT
 70
     0
  9
$DIMADEC
 70
     0
  9
$DIMALTRND
 40
0.0
  9
$DIMAZIN
 70
     0
  9
$DIMDSEP
 70
    46
  9
$DIMATFIT
 70
     3
  9
$DIMFRAC
 70
     0
  9
$DIMLDRBLK
  1

  9
$DIMLUNIT
 70
     2
  9
$DIMLWD
 70
    -2
  9
$DIMLWE
 70
    -2
  9
$DIMTMOVE
 70
     0
  9
$LUNITS
 70
     2
  9
$LUPREC
 70
     2
  9
$SKETCHINC
 40
0.1
  9
$FILLETRAD
 40
0.0
  9
$AUNITS
 70
     0
  9
$AUPREC
 70
     0
  9
$MENU
  1
.
  9
$ELEVATION
 40
0.0
  9
$PELEVATION
 40
0.0
  9
$THICKNESS
 40
0.0
  9
$LIMCHECK
 70
     0
  9
$CHAMFERA
 40
0.0
  9
$CHAMFERB
 40
0.0
  9
$CHAMFERC
 40
0.0
  9
$CHAMFERD
 40
0.0
  9
$SKPOLY
 70
     0
  9
$TDCREATE
 40
2450844.326254491
  9
$TDUCREATE
 40
2450844.242921157
  9
$TDUPDATE
 40
2456226.382021852
  9
$TDUUPDATE
 40
2456226.298688518
  9
$TDINDWG
 40
0.0621288542
  9
$TDUSRTIMER
 40
0.0621288542
  9
$USRTIMER
 70
     1
  9
$ANGBASE
 50
0.0
  9
$ANGDIR
 70
     0
  9
$PDMODE
 70
     0
  9
$PDSIZE
 40
10.62809003536999
  9
$PLINEWID
 40
0.0
  9
$SPLFRAME
 70
     0
  9
$SPLINETYPE
 70
     6
  9
$SPLINESEGS
 70
     8
  9
$HANDSEED
  5
1C82
  9
$SURFTAB1
 70
     6
  9
$SURFTAB2
 70
     6
  9
$SURFTYPE
 70
     6
  9
$SURFU
 70
     6
  9
$SURFV
 70
     6
  9
$UCSBASE
  2

  9
$UCSNAME
  2

  9
$UCSORG
 10
0.0
 20
0.0
 30
0.0
  9
$UCSXDIR
 10
1.0
 20
0.0
 30
0.0
  9
$UCSYDIR
 10
0.0
 20
1.0
 30
0.0
  9
$UCSORTHOREF
  2

  9
$UCSORTHOVIEW
 70
     0
  9
$UCSORGTOP
 10
0.0
 20
0.0
 30
0.0
  9
$UCSORGBOTTOM
 10
0.0
 20
0.0
 30
0.0
  9
$UCSORGLEFT
 10
0.0
 20
0.0
 30
0.0
  9
$UCSORGRIGHT
 10
0.0
 20
0.0
 30
0.0
  9
$UCSORGFRONT
 10
0.0
 20
0.0
 30
0.0
  9
$UCSORGBACK
 10
0.0
 20
0.0
 30
0.0
  9
$PUCSBASE
  2

  9
$PUCSNAME
  2

  9
$PUCSORG
 10
0.0
 20
0.0
 30
0.0
  9
$PUCSXDIR
 10
1.0
 20
0.0
 30
0.0
  9
$PUCSYDIR
 10
0.0
 20
1.0
 30
0.0
  9
$PUCSORTHOREF
  2

  9
$PUCSORTHOVIEW
 70
     0
  9
$PUCSORGTOP
 10
0.0
 20
0.0
 30
0.0
  9
$PUCSORGBOTTOM
 10
0.0
 20
0.0
 30
0.0
  9
$PUCSORGLEFT
 10
0.0
 20
0.0
 30
0.0
  9
$PUCSORGRIGHT
 10
0.0
 20
0.0
 30
0.0
  9
$PUCSORGFRONT
 10
0.0
 20
0.0
 30
0.0
  9
$PUCSORGBACK
 10
0.0
 20
0.0
 30
0.0
  9
$USERI1
 70
     0
  9
$USERI2
 70
     0
  9
$USERI3
 70
     0
  9
$USERI4
 70
     0
  9
$USERI5
 70
     0
  9
$USERR1
 40
0.0
  9
$USERR2
 40
0.0
  9
$USERR3
 40
0.0
  9
$USERR4
 40
0.0
  9
$USERR5
 40
0.0
  9
$WORLDVIEW
 70
     1
  9
$SHADEDGE
 70
     3
  9
$SHADEDIF
 70
    70
  9
$TILEMODE
 70
     1
  9
$MAXACTVP
 70
    16
  9
$PINSBASE
 10
0.0
 20
0.0
 30
0.0
  9
$PLIMCHECK
 70
     0
  9
$PEXTMIN
 10
1.000000000000000E+20
 20
1.000000000000000E+20
 30
1.000000000000000E+20
  9
$PEXTMAX
 10
-1.000000000000000E+20
 20
-1.000000000000000E+20
 30
-1.000000000000000E+20
  9
$PLIMMIN
 10
0.0
 20
0.0
  9
$PLIMMAX
 10
12.0
 20
9.0
  9
$UNITMODE
 70
     0
  9
$VISRETAIN
 70
     0
  9
$PLINEGEN
 70
     0
  9
$PSLTSCALE
 70
     1
  9
$TREEDEPTH
 70
  3020
  9
$CMLSTYLE
  2
STANDARD
  9
$CMLJUST
 70
     0
  9
$CMLSCALE
 40
1.0
  9
$PROXYGRAPHICS
 70
     1
  9
$MEASUREMENT
 70
     1
  9
$CELWEIGHT
370
    -1
  9
$ENDCAPS
280
     0
  9
$JOINSTYLE
280
     0
  9
$LWDISPLAY
290
     0
  9
$INSUNITS
 70
     4
  9
$HYPERLINKBASE
  1

  9
$STYLESHEET
  1

  9
$XEDIT
290
     1
  9
$CEPSNTYPE
380
     0
  9
$PSTYLEMODE
290
     1
  9
$FINGERPRINTGUID
  2
{490E2CF1-E7A0-493B-BFFD-361CCEFEDDF4}
  9
$VERSIONGUID
  2
{AD13EE53-4BAF-4950-B857-1337B9F8210D}
  9
$EXTNAMES
290
     1
  9
$PSVPSCALE
 40
0.0
  9
$OLESTARTUP
290
     0
  0
ENDSEC
  0
SECTION
  2
CLASSES
  0
CLASS
  1
ACDBDICTIONARYWDFLT
  2
AcDbDictionaryWithDefault
  3
ObjectDBX Classes
 90
        0
280
     0
281
     0
  0
CLASS
  1
MATERIAL
  2
AcDbMaterial
  3
ObjectDBX Classes
 90
     1153
280
     0
281
     0
  0
CLASS
  1
VISUALSTYLE
  2
AcDbVisualStyle
  3
ObjectDBX Classes
 90
     4095
280
     0
281
     0
  0
CLASS
  1
TABLESTYLE
  2
AcDbTableStyle
  3
ObjectDBX Classes
 90
     4095
280
     0
281
     0
  0
CLASS
  1
SCALE
  2
AcDbScale
  3
ObjectDBX Classes
 90
     1153
280
     0
281
     0
  0
CLASS
  1
MLEADERSTYLE
  2
AcDbMLeaderStyle
  3
ACDB_MLEADERSTYLE_CLASS
 90
     4095
280
     0
281
     0
  0
CLASS
  1
ACME_DOCUMENT
  2
AcMeDbDoc
  3
AcMeServices
 90
     1024
280
     0
281
     0
  0
CLASS
  1
AMGSETTINGSOBJ
  2
AmgSettingsObj
  3
"AcadM|Product Description: AutoCAD Mechanical|Company: Autodesk, Inc."
 90
     1024
280
     0
281
     0
  0
CLASS
  1
ACMESCOPE
  2
AcMeScope
  3
AcMeServices
 90
     1024
280
     0
281
     0
  0
CLASS
  1
ACMECOMMANDHISTORY
  2
AcMeCommandHistory
  3
AcMeServices
 90
     1024
280
     0
281
     0
  0
CLASS
  1
ACIMSYSVARMAN
  2
AcImSysVarManager
  3
AcMeServices
 90
     1024
280
     0
281
     0
  0
CLASS
  1
ACIMINTSYSVAR
  2
AcImIntSysVar
  3
AcMeServices
 90
     1024
280
     0
281
     0
  0
CLASS
  1
ACMEDRAWINGMAN
  2
AcMeDrawingMan
  3
AcMeServices
 90
     1024
280
     0
281
     0
  0
CLASS
  1
ACMEVIEW
  2
AcMeView
  3
AcMeServices
 90
     1024
280
     0
281
     0
  0
CLASS
  1
ACDBENTITYCACHE
  2
AcMeEntityCache
  3
AcMeServices
 90
     1024
280
     0
281
     0
  0
CLASS
  1
GSMANAGER
  2
AcMeGSManager
  3
AcMeServices
 90
     1024
280
     0
281
     0
  0
CLASS
  1
AMDTINTERNALREACTOR
  2
AmdtInternalReactor
  3
AcMeServices
 90
     1024
280
     0
281
     0
  0
CLASS
  1
ACMESTATEMGR
  2
AcMeStateMgr
  3
AcMeServices
 90
     1024
280
     0
281
     0
  0
CLASS
  1
ACGREFMASTER
  2
AcGrefMaster
  3
AcAttribServices
 90
     1024
280
     0
281
     0
  0
CLASS
  1
AM_DRAWING_MGR
  2
AcDmDwgMgr
  3
AcMechDwgViewMgmt
 90
     1024
280
     0
281
     0
  0
CLASS
  1
AM_DWG_DOCUMENT
  2
AcDmDwgDocument
  3
AcMechDwgViewMgmt
 90
     1024
280
     0
281
     0
  0
CLASS
  1
AM_DWG_SHEET
  2
AcDmSheet
  3
AcMechDwgViewMgmt
 90
     1024
280
     0
281
     0
  0
CLASS
  1
AM_VIEWDIMPARMAP
  2
AcDmViewDimParMap
  3
AcMechDwgViewMgmt
 90
     1024
280
     0
281
     0
  0
CLASS
  1
ACIMREALSYSVAR
  2
AcImRealSysVar
  3
AcMeServices
 90
     1024
280
     0
281
     0
  0
CLASS
  1
AM_DWGMGR_NAME
  2
AcDmDwgMgrName
  3
AcMechDwgViewMgmt
 90
     1024
280
     0
281
     0
  0
CLASS
  1
ACME_DATABASE
  2
AcMeDbDatabase
  3
AcMeServices
 90
     1024
280
     0
281
     0
  0
CLASS
  1
ACRFINSADJUSTERMGR
  2
AcRfInsAdjusterMgr
  3
AcMeServices
 90
     1024
280
     0
281
     0
  0
CLASS
  1
ACGREFACADMASTER
  2
AcGrefacadMaster
  3
AcGrefServices
 90
     1024
280
     0
281
     0
  0
CLASS
  1
AMDTMENUSTATEMGR
  2
AmdtMenuStateMgr
  3
McadcomServices
 90
     1024
280
     0
281
     0
  0
CLASS
  1
AMDTMCOMMENUSTATE
  2
AmdtMcomMenuState
  3
McadcomServices
 90
     1024
280
     0
281
     0
  0
CLASS
  1
AMIMASTER
  2
AmiMaster
  3
AmiServices
 90
     1024
280
     0
281
     0
  0
CLASS
  1
MAPIAMMOUDLE
  2
MApiAmModule
  3
MApiAmServices
 90
     1024
280
     0
281
     0
  0
CLASS
  1
ACIMSTRSYSVAR
  2
AcImStrSysVar
  3
AcMeServices
 90
     1024
280
     0
281
     0
  0
CLASS
  1
AMDTADMENUSTATE
  2
AmdtAdMenuState
  3
DesignerServices
 90
     1024
280
     0
281
     0
  0
CLASS
  1
ADAPPL
  2
AcAdAppl
  3
DesignerServices
 90
     1024
280
     0
281
     0
  0
CLASS
  1
DEPMGR
  2
AcAdDepMgr
  3
DesignerServices
 90
     1024
280
     0
281
     0
  0
CLASS
  1
PARAMMGR
  2
AcAdParamMgr
  3
DesignerServices
 90
     1024
280
     0
281
     0
  0
CLASS
  1
PARAMSCOPE
  2
AcAdParamScope
  3
DesignerServices
 90
     1024
280
     0
281
     0
  0
CLASS
  1
NAMEDAPPL
  2
AcAdNamedAppl
  3
DesignerServices
 90
     1024
280
     0
281
     0
  0
CLASS
  1
AMDTDMMENUSTATE
  2
AmdtDmMenuState
  3
AcMechDwgViewMgmt
 90
     1024
280
     0
281
     0
  0
CLASS
  1
AMDTAMMENUSTATE
  2
AmdtAmMenuState
  3
DesignerAssemblies
 90
     1024
280
     0
281
     0
  0
CLASS
  1
ACAMPROJECT
  2
AcAmProject
  3
DesignerAssemblies
 90
     1024
280
     0
281
     0
  0
CLASS
  1
ACAMGRCOMPDEF
  2
AcAmGrCompDef
  3
DesignerAssemblies
 90
     1024
280
     0
281
     0
  0
CLASS
  1
ACCMCONTEXT
  2
AcCmContext
  3
DesignerAssemblies
 90
     1024
280
     0
281
     0
  0
CLASS
  1
ACAMCOMPDEF
  2
AcAmCompDef
  3
DesignerAssemblies
 90
     1024
280
     0
281
     0
  0
CLASS
  1
ACAMCOMPDEFMGR
  2
AcAmCompDefMgr
  3
DesignerAssemblies
 90
     1024
280
     0
281
     0
  0
CLASS
  1
AMCONTEXTMGR
  2
AcAmContextMgr
  3
DesignerAssemblies
 90
     1024
280
     0
281
     0
  0
CLASS
  1
ACAMCONTEXTMODELER
  2
AcAmContextModeler
  3
DesignerAssemblies
 90
     1024
280
     0
281
     0
  0
CLASS
  1
ACMDATADICTIONARY
  2
AcmDataDictionary
  3
"AcmSymBB|Product Description: AutoCAD Mechanical|Company: Autodesk, Inc."
 90
     1024
280
     0
281
     0
  0
CLASS
  1
CATALOGSTATE
  2
AcAmCatalogState
  3
DesignerAssemblies
 90
     1024
280
     0
281
     0
  0
CLASS
  1
ACAMGRCOMPDEFSET
  2
AcAmGrCompDefSet
  3
DesignerAssemblies
 90
     1024
280
     0
281
     0
  0
CLASS
  1
AMDTBROWSERDBTAB
  2
AmdtBrowserDbTab
  3
McadcomServices
 90
     1024
280
     0
281
     0
  0
CLASS
  1
CBROWSERAPPOBJECT
  2
CBrowserAppObject
  3
McadcomServices
 90
     1024
280
     0
281
     0
  0
CLASS
  1
DM_PLACEHOLDER
  2
AcDmSelsetPlaceholder
  3
AcMechDwgViewMgmt
 90
     1024
280
     0
281
     0
  0
CLASS
  1
ACMSTANDARDANSI
  2
AcmStandardANSI
  3
"Amdt_StdImp|Product Description: AutoCAD Mechanical|Company: Autodesk, Inc."
 90
     1024
280
     0
281
     0
  0
CLASS
  1
ACMSURFSTANDARDANSI
  2
AcmSurfTextStdANSI
  3
"Amdt_StdImp|Product Description: AutoCAD Mechanical|Company: Autodesk, Inc."
 90
     1024
280
     0
281
     0
  0
CLASS
  1
ACMFCFSTANDARDANSI
  2
AcmFCFStdANSI
  3
"Amdt_StdImp|Product Description: AutoCAD Mechanical|Company: Autodesk, Inc."
 90
     1024
280
     0
281
     0
  0
CLASS
  1
ACMWELDSTANDARDANSI
  2
AcmWeldingStdANSI
  3
"Amdt_StdImp|Product Description: AutoCAD Mechanical|Company: Autodesk, Inc."
 90
     1024
280
     0
281
     0
  0
CLASS
  1
ACMIDSTANDARDANSI
  2
AcmIdStdANSI
  3
"Amdt_StdImp|Product Description: AutoCAD Mechanical|Company: Autodesk, Inc."
 90
     1024
280
     0
281
     0
  0
CLASS
  1
ACMDATUMSTANDARDANSI
  2
AcmDatumStdANSI
  3
"Amdt_StdImp|Product Description: AutoCAD Mechanical|Company: Autodesk, Inc."
 90
     1024
280
     0
281
     0
  0
CLASS
  1
ACMBOMSTANDARDANSI
  2
AcmBOMStdANSI
  3
"Amdt_StdImp|Product Description: AutoCAD Mechanical|Company: Autodesk, Inc."
 90
     1024
280
     0
281
     0
  0
CLASS
  1
ACMDETAILSTANDARDANSI
  2
AmdtDetailSymStdANSI
  3
"Amdt_StdImp|Product Description: AutoCAD Mechanical|Company: Autodesk, Inc."
 90
     1024
280
     0
281
     0
  0
CLASS
  1
ACMSECTIONSTANDARDANSI
  2
AmdtSectionSymStdANSI
  3
"Amdt_StdImp|Product Description: AutoCAD Mechanical|Company: Autodesk, Inc."
 90
     1024
280
     0
281
     0
  0
CLASS
  1
ACMCENTERLINESTANDARDANSI
  2
AmdtCenterLineStdANSI
  3
"Amdt_StdImp|Product Description: AutoCAD Mechanical|Company: Autodesk, Inc."
 90
     1024
280
     0
281
     0
  0
CLASS
  1
ACMTHREADLINESTANDARDANSI
  2
AmdtThreadLineStdANSI
  3
"Amdt_StdImp|Product Description: AutoCAD Mechanical|Company: Autodesk, Inc."
 90
     1024
280
     0
281
     0
  0
CLASS
  1
ACMNOTESTANDARDANSI
  2
AmdtNoteStdANSI
  3
"Amdt_StdImp|Product Description: AutoCAD Mechanical|Company: Autodesk, Inc."
 90
     1024
280
     0
281
     0
  0
CLASS
  1
ACMTAPERSTANDARDANSI
  2
AcmTaperStdANSI
  3
"Amdt_StdImp|Product Description: AutoCAD Mechanical|Company: Autodesk, Inc."
 90
     1024
280
     0
281
     0
  0
CLASS
  1
ACMANOOTATIONVIEWSTANDARDANSI
  2
AmdtAnViewStdANSI
  3
"Amdt_StdImp|Product Description: AutoCAD Mechanical|Company: Autodesk, Inc."
 90
     1024
280
     0
281
     0
  0
CLASS
  1
ACAMGLAYSTD
  2
AcAmgLayStd
  3
"AmgLay|Product Description: AutoCAD Mechanical|Company: Autodesk, Inc."
 90
     1024
280
     0
281
     0
  0
CLASS
  1
ACAMGDIMSTD
  2
AcAmgDimStd
  3
"AmgDim|Product Description: AutoCAD Mechanical|Company: Autodesk, Inc."
 90
     1024
280
     0
281
     0
  0
CLASS
  1
AMGOBJPROPCFG
  2
AmgObjPropCfg
  3
"AmgLay|Product Description: AutoCAD Mechanical|Company: Autodesk, Inc."
 90
     1025
280
     0
281
     0
  0
CLASS
  1
ACAMGHOLECHARTSTDANSI
  2
AcAmgHoleChartStdANSI
  3
AmgDim|Product Description: AutoCAD Mechanical|Company: Autodesk, Inc.
 90
     1024
280
     0
281
     0
  0
CLASS
  1
ACAMGTITLESTD
  2
AcAmgTitleStd
  3
"AmgTitle|Product Description: AutoCAD Mechanical|Company: Autodesk, Inc."
 90
     4095
280
     0
281
     0
  0
CLASS
  1
AMDTNOTETEMPLATEDB
  2
AmdtNoteTemplateDB
  3
AcmSymBB|Product Description: AutoCAD Mechanical|Company: Autodesk, Inc.
 90
     1024
280
     0
281
     0
  0
CLASS
  1
ACAMGFILTERDAT
  2
AcAmgFilterDat
  3
"AcadM|Product Description: AutoCAD Mechanical|Company: Autodesk, Inc."
 90
     1024
280
     0
281
     0
  0
CLASS
  1
DICTIONARYVAR
  2
AcDbDictionaryVar
  3
ObjectDBX Classes
 90
        0
280
     0
281
     0
  0
CLASS
  1
CELLSTYLEMAP
  2
AcDbCellStyleMap
  3
ObjectDBX Classes
 90
     1152
280
     0
281
     0
  0
CLASS
  1
ACDBPLACEHOLDER
  2
AcDbPlaceHolder
  3
ObjectDBX Classes
 90
        0
280
     0
281
     0
  0
CLASS
  1
LAYOUT
  2
AcDbLayout
  3
ObjectDBX Classes
 90
        0
280
     0
281
     0
  0
ENDSEC
  0
SECTION
  2
TABLES
  0
TABLE
  2
VPORT
  5
8
330
0
100
AcDbSymbolTable
 70
     1
  0
VPORT
  5
1B60
330
8
100
AcDbSymbolTableRecord
100
AcDbViewportTableRecord
  2
*ACTIVE
 70
     0
 10
0.0
 20
0.0
 11
1.0
 21
1.0
 12
162.3995615935196
 22
122.3218929883111
 13
0.0
 23
0.0
 14
1.0
 24
1.0
 15
0.0
 25
0.0
 16
0.0
 26
0.0
 36
1.0
 17
0.0
 27
0.0
 37
0.0
 40
205.1704530668448
 41
1.548186528497409
 42
50.0
 43
0.0
 44
0.0
 50
0.0
 51
0.0
 71
     0
 72
   100
 73
     1
 74
     1
 75
     0
 76
     0
 77
     0
 78
     0
281
     0
 65
     1
110
0.0
120
0.0
130
0.0
111
1.0
121
0.0
131
0.0
112
0.0
122
1.0
132
0.0
 79
     0
146
0.0
  0
ENDTAB
  0
TABLE
  2
LTYPE
  5
5
330
0
100
AcDbSymbolTable
 70
    22
  0
LTYPE
  5
13
330
5
100
AcDbSymbolTableRecord
100
AcDbLinetypeTableRecord
  2
BYBLOCK
 70
     0
  3

 72
    65
 73
     0
 40
0.0
  0
LTYPE
  5
14
330
5
100
AcDbSymbolTableRecord
100
AcDbLinetypeTableRecord
  2
BYLAYER
 70
     0
  3

 72
    65
 73
     0
 40
0.0
  0
LTYPE
  5
15
330
5
100
AcDbSymbolTableRecord
100
AcDbLinetypeTableRecord
  2
CONTINUOUS
 70
     0
  3
Solid line
 72
    65
 73
     0
 40
0.0
  0
LTYPE
  5
F14
330
5
100
AcDbSymbolTableRecord
100
AcDbLinetypeTableRecord
  2
GEN7
 70
     0
  3
____ . ____ . ____ . ____ . ____ . ____ . ____
 72
    65
 73
     4
 40
13.75
 49
10.0
 74
     0
 49
-1.25
 74
     0
 49
1.25
 74
     0
 49
-1.25
 74
     0
  0
LTYPE
  5
F15
330
5
100
AcDbSymbolTableRecord
100
AcDbLinetypeTableRecord
  2
GEN3
 70
     0
  3
-- -- -- -- -- -- -- -- -- -- -- -- -- -- --
 72
    65
 73
     2
 40
6.25
 49
5.0
 74
     0
 49
-1.25
 74
     0
  0
LTYPE
  5
1075
330
5
100
AcDbSymbolTableRecord
100
AcDbLinetypeTableRecord
  2
GEN4A
 70
     0
  3
_____ . . _____ . . _____ . . ____ .. ____
 72
    65
 73
     6
 40
16.25
 49
10.0
 74
     0
 49
-1.25
 74
     0
 49
1.25
 74
     0
 49
-1.25
 74
     0
 49
1.25
 74
     0
 49
-1.25
 74
     0
  0
LTYPE
  5
1BEF
330
5
100
AcDbSymbolTableRecord
100
AcDbLinetypeTableRecord
  2
HIDDEN
 70
     0
  3
Verdeckt
 72
    65
 73
     2
 40
0.375
 49
0.25
 74
     0
 49
-0.125
 74
     0
  0
LTYPE
  5
1BF0
330
5
100
AcDbSymbolTableRecord
100
AcDbLinetypeTableRecord
  2
PHANTOM2
 70
     0
  3
Phantom (.5x) ___ _ _ ___ _ _ ___ _ _ ___ _ _
 72
    65
 73
     6
 40
1.25
 49
0.625
 74
     0
 49
-0.125
 74
     0
 49
0.125
 74
     0
 49
-0.125
 74
     0
 49
0.125
 74
     0
 49
-0.125
 74
     0
  0
LTYPE
  5
1BF1
330
5
100
AcDbSymbolTableRecord
100
AcDbLinetypeTableRecord
  2
CENTER
 70
     0
  3
Mitte ____ _ ____ _ ____ _ ____ _ ____ _ ____
 72
    65
 73
     4
 40
2.0
 49
1.25
 74
     0
 49
-0.25
 74
     0
 49
0.25
 74
     0
 49
-0.25
 74
     0
  0
LTYPE
  5
1C36
330
5
100
AcDbSymbolTableRecord
100
AcDbLinetypeTableRecord
  2
AM_ISO02W050
 70
     0
  3
__ __ __ __ __ __ __ __ __ __ __ __ __ __ __
 72
    65
 73
     2
 40
7.5
 49
6.0
 74
     0
 49
-1.5
 74
     0
  0
LTYPE
  5
1C37
330
5
100
AcDbSymbolTableRecord
100
AcDbLinetypeTableRecord
  2
AM_ISO08W050
 70
     0
  3
____ . ____ . ____ . ____ . ____ . ____ . ____
 72
    65
 73
     4
 40
18.0
 49
12.0
 74
     0
 49
-1.5
 74
     0
 49
3.0
 74
     0
 49
-1.5
 74
     0
  0
LTYPE
  5
1C38
330
5
100
AcDbSymbolTableRecord
100
AcDbLinetypeTableRecord
  2
AM_ISO09W050
 70
     0
  3
_____ . . _____ . . _____ . . ____ .. ____
 72
    65
 73
     6
 40
22.5
 49
12.0
 74
     0
 49
-1.5
 74
     0
 49
3.0
 74
     0
 49
-1.5
 74
     0
 49
3.0
 74
     0
 49
-1.5
 74
     0
  0
LTYPE
  5
1C39
330
5
100
AcDbSymbolTableRecord
100
AcDbLinetypeTableRecord
  2
Amconstr
 70
     0
  3
_______________________
 72
    65
 73
     2
 40
9999.0
 49
9999.0
 74
     0
 49
0.0
 74
     0
  0
LTYPE
  5
1C3A
330
5
100
AcDbSymbolTableRecord
100
AcDbLinetypeTableRecord
  2
AM_ISO08W050x2
 70
     0
  3
__ . __ . __ . __ . __ . __
 72
    65
 73
     4
 40
9.0
 49
6.0
 74
     0
 49
-0.75
 74
     0
 49
1.5
 74
     0
 49
-0.75
 74
     0
  0
LTYPE
  5
1C3B
330
5
100
AcDbSymbolTableRecord
100
AcDbLinetypeTableRecord
  2
AM_ISO02W050x2
 70
     0
  3
 _ _ _ _ _ _ _ _ _ _ _ _
 72
    65
 73
     2
 40
3.75
 49
3.0
 74
     0
 49
-0.75
 74
     0
  0
LTYPE
  5
1C3E
330
5
100
AcDbSymbolTableRecord
100
AcDbLinetypeTableRecord
  2
Amzigzag
 70
     0
  3
/\/-/\/-/\/-/\/-/\/-/\/
 72
    65
 73
     2
 40
11.0001
 49
0.0001
 74
     4
 75
   136
340
1C3D
 46
0.04
 50
0.0
 44
0.0
 45
0.0
 49
-11.0
 74
     0
  0
LTYPE
  5
1C3F
330
5
100
AcDbSymbolTableRecord
100
AcDbLinetypeTableRecord
  2
CENTER2
 70
     0
  3
Center (.5x) ___ _ ___ _ ___ _ ___ _ ___ _ ___
 72
    65
 73
     4
 40
1.125
 49
0.75
 74
     0
 49
-0.125
 74
     0
 49
0.125
 74
     0
 49
-0.125
 74
     0
  0
LTYPE
  5
1C40
330
5
100
AcDbSymbolTableRecord
100
AcDbLinetypeTableRecord
  2
HIDDEN2
 70
     0
  3
Hidden (.5x) _ _ _ _ _ _ _ _ _ _ _ _ _ _ _ _ _
 72
    65
 73
     2
 40
0.1875
 49
0.125
 74
     0
 49
-0.0625
 74
     0
  0
LTYPE
  5
1C41
330
5
100
AcDbSymbolTableRecord
100
AcDbLinetypeTableRecord
  2
Amzigzag2
 70
     0
  3
/\/-/\/-/\/-/\/-/\/-/\/
 72
    65
 73
     2
 40
0.4401
 49
0.0001
 74
     4
 75
   136
340
1C3D
 46
0.0016
 50
0.0
 44
0.0
 45
0.0
 49
-0.4400000000000001
 74
     0
  0
LTYPE
  5
1C4F
330
5
100
AcDbSymbolTableRecord
100
AcDbLinetypeTableRecord
  2
ACANSTGBM
 70
     0
  3
__ . . __ . .
 72
    65
 73
     6
 40
9.0
 49
4.0
 74
     0
 49
-1.0
 74
     0
 49
1.0
 74
     0
 49
-1.0
 74
     0
 49
1.0
 74
     0
 49
-1.0
 74
     0
  0
LTYPE
  5
1C50
330
5
100
AcDbSymbolTableRecord
100
AcDbLinetypeTableRecord
  2
ACANSTGLM
 70
     0
  3
_ _ _ _ _
 72
    65
 73
     2
 40
3.0
 49
2.0
 74
     0
 49
-1.0
 74
     0
  0
LTYPE
  5
1C5E
330
5
100
AcDbSymbolTableRecord
100
AcDbLinetypeTableRecord
  2
gen3a
 70
     0
  3
 - - - - -
 72
    65
 73
     2
 40
3.125
 49
2.25
 74
     0
 49
-0.875
 74
     0
  0
LTYPE
  5
1C5F
330
5
100
AcDbSymbolTableRecord
100
AcDbLinetypeTableRecord
  2
gen7a
 70
     0
  3
__ . __ . __
 72
    65
 73
     4
 40
6.875
 49
4.75
 74
     0
 49
-0.875
 74
     0
 49
0.375
 74
     0
 49
-0.875
 74
     0
  0
LTYPE
  5
1C60
330
5
100
AcDbSymbolTableRecord
100
AcDbLinetypeTableRecord
  2
genzigzag
 70
     0
  3
/\/-/\/-/\/-/\/-/\/-/\/
 72
    65
 73
     2
 40
12.0001
 49
0.0001
 74
     4
 75
   135
340
1C3D
 46
2.0
 50
0.0
 44
0.0
 45
0.0
 49
-12.0
 74
     0
  0
ENDTAB
  0
TABLE
  2
LAYER
  5
2
330
0
100
AcDbSymbolTable
 70
    15
  0
LAYER
  5
F
330
2
100
AcDbSymbolTableRecord
100
AcDbLayerTableRecord
  2
0
 70
     0
 62
     7
  6
CONTINUOUS
370
    -3
390
1B63
  0
LAYER
  5
F27
330
2
100
AcDbSymbolTableRecord
100
AcDbLayerTableRecord
  2
MSR1-0
 70
     0
 62
     7
  6
CONTINUOUS
370
    -3
390
1B63
  0
LAYER
  5
F28
330
2
100
AcDbSymbolTableRecord
100
AcDbLayerTableRecord
  2
MSR1-4
 70
     0
 62
     3
  6
CONTINUOUS
370
    -3
390
1B63
  0
LAYER
  5
F29
330
2
100
AcDbSymbolTableRecord
100
AcDbLayerTableRecord
  2
MSR1-7
 70
     0
 62
     4
  6
GEN7
370
    -3
390
1B63
  0
LAYER
  5
F2B
330
2
100
AcDbSymbolTableRecord
100
AcDbLayerTableRecord
  2
MSR1-3
 70
     0
 62
     6
  6
GEN3
370
    -3
390
1B63
  0
LAYER
  5
F2D
330
2
100
AcDbSymbolTableRecord
100
AcDbLayerTableRecord
  2
MSR1-6
 70
     0
 62
     2
  6
CONTINUOUS
370
    -3
390
1B63
  0
LAYER
  5
FF5
330
2
100
AcDbSymbolTableRecord
100
AcDbLayerTableRecord
  2
MSR1-8
 70
     0
 62
     1
  6
CONTINUOUS
370
    -3
390
1B63
  0
LAYER
  5
1015
330
2
100
AcDbSymbolTableRecord
100
AcDbLayerTableRecord
  2
INFO
 70
     0
 62
     4
  6
CONTINUOUS
370
    -3
390
1B63
  0
LAYER
  5
104D
330
2
100
AcDbSymbolTableRecord
100
AcDbLayerTableRecord
  2
MSR1-0N
 70
     0
 62
     7
  6
CONTINUOUS
370
    -3
390
1B63
  0
LAYER
  5
1074
330
2
100
AcDbSymbolTableRecord
100
AcDbLayerTableRecord
  2
MSR1-4A
 70
     0
 62
     3
  6
GEN4A
370
    -3
390
1B63
  0
LAYER
  5
14FE
330
2
100
AcDbSymbolTableRecord
100
AcDbLayerTableRecord
  2
MSR1-5
 70
     0
 62
     3
  6
CONTINUOUS
370
    -3
390
1B63
  0
LAYER
  5
150D
330
2
100
AcDbSymbolTableRecord
100
AcDbLayerTableRecord
  2
DEFPOINTS
 70
     0
 62
     7
  6
CONTINUOUS
290
     0
370
    -3
390
1B63
  0
LAYER
  5
1529
330
2
100
AcDbSymbolTableRecord
100
AcDbLayerTableRecord
  2
GEVACTIVE
 70
     0
 62
     2
  6
CONTINUOUS
370
    -3
390
1B63
  0
LAYER
  5
152A
330
2
100
AcDbSymbolTableRecord
100
AcDbLayerTableRecord
  2
GEVINACTIVE
 70
     0
 62
     8
  6
CONTINUOUS
370
    -3
390
1B63
  0
LAYER
  5
152B
330
2
100
AcDbSymbolTableRecord
100
AcDbLayerTableRecord
  2
VCCNULL
 70
     0
 62
    -5
  6
CONTINUOUS
370
    -3
390
1B63
  0
ENDTAB
  0
TABLE
  2
STYLE
  5
3
330
0
100
AcDbSymbolTable
 70
     4
  0
STYLE
  5
10
330
3
100
AcDbSymbolTableRecord
100
AcDbTextStyleTableRecord
  2
STANDARD
 70
     0
 40
0.0
 41
1.0
 50
0.0
 71
     0
 42
1.5
  3
ISOCP.SHX
  4

  0
STYLE
  5
1C3D
330
3
100
AcDbSymbolTableRecord
100
AcDbTextStyleTableRecord
  2

 70
     1
 40
0.0
 41
1.0
 50
0.0
 71
     0
 42
1.5
  3
genltshp.shx
  4

  0
STYLE
  5
1C4D
330
3
100
AcDbSymbolTableRecord
100
AcDbTextStyleTableRecord
  2
ACANSTS
 70
     0
 40
1.0
 41
1.0
 50
0.0
 71
     0
 42
1.5
  3
romans.shx
  4

  0
STYLE
  5
1C4E
330
3
100
AcDbSymbolTableRecord
100
AcDbTextStyleTableRecord
  2
ACANSGDT
 70
     0
 40
0.0
 41
1.0
 50
0.0
 71
     0
 42
1.5
  3
amgdt.shx
  4

  0
ENDTAB
  0
TABLE
  2
VIEW
  5
6
330
0
100
AcDbSymbolTable
 70
     0
  0
ENDTAB
  0
TABLE
  2
UCS
  5
7
330
0
100
AcDbSymbolTable
 70
     0
  0
ENDTAB
  0
TABLE
  2
APPID
  5
9
330
0
100
AcDbSymbolTable
 70
    38
  0
APPID
  5
11
330
9
100
AcDbSymbolTableRecord
100
AcDbRegAppTableRecord
  2
ACAD
 70
     0
  0
APPID
  5
F1A
330
9
100
AcDbSymbolTableRecord
100
AcDbRegAppTableRecord
  2
GENIUS_GENCFG_13
 70
     0
1001
GENIUS_GENCFG0_13
1000
GEN@INFO_POS@XLATE
1001
GENIUS_GENCFG1_13
1000
GEN@LAYER@DEFS
1001
GENIUS_GENCFG2_13
1000
GEN@LAYER@ENTSORT
1001
GENIUS_GENCFG3_13
1000
GEN@OSWIZ
1001
GENIUS_GENCFG4_13
1000
GEN
1001
GENIUS_GEVCFG0_13
1000
GEV
1001
GENIUS_GEFCFG0_13
1000
GEF
  0
APPID
  5
F1B
330
9
100
AcDbSymbolTableRecord
100
AcDbRegAppTableRecord
  2
GENIUS_GENCFG0_13
 70
     0
1001
GENIUS_GENCFG_13
1071
881171123
1000
F1B
1000
GEN@INFO_POS@XLATE
1070
     7
1000
GenCfgObject
1000
GenCfgShort
1000
GenCfgReal
1000
GenCfgBool
1000
GenCfgString
1000
GenCfgDim
1000
GenCfgAttrInf
1000
INFOPOINTS
1070
     0
1002
{
1000
GENINF13
1070
     0
1002
{
1000
2GENINF
1070
     4
1000
2
1002
{
1002
}
1000
3GENINF
1070
     4
1000
3
1002
{
1002
}
1000
4GENINF
1070
     4
1000
4
1002
{
1002
}
1000
5GENINF
1070
     4
1000
5
1002
{
1002
}
1000
6GENINF
1070
     4
1000
6
1002
{
1002
}
1000
7GENINF
1070
     4
1000
7
1002
{
1002
}
1000
8GENINF
1070
     4
1000
8
1002
{
1002
}
1000
9GENINF
1070
     4
1000
9
1002
{
1002
}
1000
10GENINF
1070
     4
1000
10
1002
{
1002
}
1000
11GENINF
1070
     4
1000
11
1002
{
1002
}
1000
12GENINF
1070
     4
1000
12
1002
{
1002
}
1000
13GENINF
1070
     4
1000
13
1002
{
1002
}
1000
14GENINF
1070
     4
1000
14
1002
{
1002
}
1000
15GENINF
1070
     4
1000
15
1002
{
1002
}
1000
16GENINF
1070
     4
1000
16
1002
{
1002
}
1000
17GENINF
1070
     4
1000
17
1002
{
1002
}
1000
18GENINF
1070
     4
1000
18
1002
{
1002
}
1000
19GENINF
1070
     4
1000
19
1002
{
1002
}
1000
20GENINF
1070
     4
1000
20
1002
{
1002
}
1000
21GENINF
1070
     4
1000
21
1002
{
1002
}
1000
22GENINF
1070
     4
1000
22
1002
{
1002
}
1000
23GENINF
1070
     4
1000
23
1002
{
1002
}
1000
24GENINF
1070
     4
1000
24
1002
{
1002
}
1000
0GENINF
1070
     4
1000
0
1002
{
1002
}
1002
}
1000
GENINFO
1070
     0
1002
{
1000
3GENINF
1070
     4
1000
3
1002
{
1002
}
1000
4GENINF
1070
     4
1000
4
1002
{
1002
}
1000
5GENINF
1070
     4
1000
5
1002
{
1002
}
1000
6GENINF
1070
     4
1000
6
1002
{
1002
}
1000
7GENINF
1070
     4
1000
7
1002
{
1002
}
1000
8GENINF
1070
     4
1000
8
1002
{
1002
}
1000
9GENINF
1070
     4
1000
9
1002
{
1002
}
1000
10GENINF
1070
     4
1000
10
1002
{
1002
}
1000
11GENINF
1070
     4
1000
11
1002
{
1002
}
1000
12GENINF
1070
     4
1000
12
1002
{
1002
}
1000
13GENINF
1070
     4
1000
13
1002
{
1002
}
1000
14GENINF
1070
     4
1000
14
1002
{
1002
}
1000
15GENINF
1070
     4
1000
15
1002
{
1002
}
1000
16GENINF
1070
     4
1000
16
1002
{
1002
}
1000
17GENINF
1070
     4
1000
17
1002
{
1002
}
1000
18GENINF
1070
     4
1000
18
1002
{
1002
}
1000
19GENINF
1070
     4
1000
19
1002
{
1002
}
1000
20GENINF
1070
     4
1000
20
1002
{
1002
}
1000
21GENINF
1070
     4
1000
21
1002
{
1002
}
1000
22GENINF
1070
     4
1000
22
1002
{
1002
}
1002
}
1000
DININFO
1070
     0
1002
{
1000
ST-NAME1
1070
     4
1000
5
1002
{
1002
}
1000
ST-NAME2
1070
     4
1000
6
1002
{
1002
}
1000
ST-NORM1
1070
     4
1000
7
1002
{
1002
}
1000
ST-NORM2
1070
     4
1000
8
1002
{
1002
}
1000
ST-MAT1
1070
     4
1000
9
1002
{
1002
}
1000
ST-MAT2
1070
     4
1000
10
1002
{
1002
}
1002
}
1002
}
1000
POS_NUMBERS
1070
     0
1002
{
1000
GENPOS13
1070
     0
1002
{
1000
1GENPOS
1070
     4
1000
1
1002
{
1002
}
1000
2GENPOS
1070
     4
1000
2
1002
{
1002
}
1000
3GENPOS
1070
     4
1000
3
1002
{
1002
}
1000
4GENPOS
1070
     4
1000
4
1002
{
1002
}
1000
5GENPOS
1070
     4
1000
5
1002
{
1002
}
1000
6GENPOS
1070
     4
1000
6
1002
{
1002
}
1000
7GENPOS
1070
     4
1000
7
1002
{
1002
}
1000
8GENPOS
1070
     4
1000
8
1002
{
1002
}
1000
9GENPOS
1070
     4
1000
9
1002
{
1002
}
1000
10GENPOS
1070
     4
1000
10
1002
{
1002
}
1000
11GENPOS
1070
     4
1000
11
1002
{
1002
}
1000
12GENPOS
1070
     4
1000
12
1002
{
1002
}
1000
13GENPOS
1070
     4
1000
13
1002
{
1002
}
1000
14GENPOS
1070
     4
1000
14
1002
{
1002
}
1000
15GENPOS
1070
     4
1000
15
1002
{
1002
}
1000
16GENPOS
1070
     4
1000
16
1002
{
1002
}
1000
17GENPOS
1070
     4
1000
17
1002
{
1002
}
1000
18GENPOS
1070
     4
1000
18
1002
{
1002
}
1000
19GENPOS
1070
     4
1000
19
1002
{
1002
}
1000
20GENPOS
1070
     4
1000
20
1002
{
1002
}
1000
21GENPOS
1070
     4
1000
21
1002
{
1002
}
1000
22GENPOS
1070
     4
1000
22
1002
{
1002
}
1000
23GENPOS
1070
     4
1000
23
1002
{
1002
}
1000
24GENPOS
1070
     4
1000
24
1002
{
1002
}
1000
0GENPOS
1070
     4
1000
0
1002
{
1002
}
1002
}
1000
GENPOS
1070
     0
1002
{
1000
1GENPOS
1070
     4
1000
1
1002
{
1002
}
1000
2GENPOS
1070
     4
1000
2
1002
{
1002
}
1000
3GENPOS
1070
     4
1000
3
1002
{
1002
}
1000
4GENPOS
1070
     4
1000
4
1002
{
1002
}
1000
5GENPOS
1070
     4
1000
5
1002
{
1002
}
1000
6GENPOS
1070
     4
1000
6
1002
{
1002
}
1000
7GENPOS
1070
     4
1000
7
1002
{
1002
}
1000
8GENPOS
1070
     4
1000
8
1002
{
1002
}
1000
9GENPOS
1070
     4
1000
9
1002
{
1002
}
1000
10GENPOS
1070
     4
1000
10
1002
{
1002
}
1000
11GENPOS
1070
     4
1000
11
1002
{
1002
}
1000
12GENPOS
1070
     4
1000
12
1002
{
1002
}
1000
13GENPOS
1070
     4
1000
13
1002
{
1002
}
1000
14GENPOS
1070
     4
1000
14
1002
{
1002
}
1000
15GENPOS
1070
     4
1000
15
1002
{
1002
}
1000
16GENPOS
1070
     4
1000
16
1002
{
1002
}
1000
17GENPOS
1070
     4
1000
17
1002
{
1002
}
1000
18GENPOS
1070
     4
1000
18
1002
{
1002
}
1000
19GENPOS
1070
     4
1000
19
1002
{
1002
}
1000
20GENPOS
1070
     4
1000
20
1002
{
1002
}
1000
21GENPOS
1070
     4
1000
21
1002
{
1002
}
1000
22GENPOS
1070
     4
1000
22
1002
{
1002
}
1000
23GENPOS
1070
     4
1000
23
1002
{
1002
}
1002
}
1000
DIN985
1070
     0
1002
{
1000
POSITION
1070
     4
1000
1
1002
{
1002
}
1000
MENGE
1070
     4
1000
2
1002
{
1002
}
1000
BLATT
1070
     4
1000
3
1002
{
1002
}
1000
BENENN
1070
     4
1000
5
1002
{
1002
}
1000
BENENN2
1070
     4
1000
6
1002
{
1002
}
1000
NORM
1070
     4
1000
7
1002
{
1002
}
1000
NORM2
1070
     4
1000
8
1002
{
1002
}
1000
WERKSTOFF
1070
     4
1000
9
1002
{
1002
}
1000
WERKSTOFF2
1070
     4
1000
10
1002
{
1002
}
1002
}
1000
DIN986
1070
     0
1002
{
1000
POSITION
1070
     4
1000
1
1002
{
1002
}
1000
MENGE
1070
     4
1000
2
1002
{
1002
}
1000
BLATT
1070
     4
1000
3
1002
{
1002
}
1000
BENENN
1070
     4
1000
5
1002
{
1002
}
1000
BENENN2
1070
     4
1000
6
1002
{
1002
}
1000
NORM
1070
     4
1000
7
1002
{
1002
}
1000
NORM2
1070
     4
1000
8
1002
{
1002
}
1000
WERKSTOFF
1070
     4
1000
9
1002
{
1002
}
1000
WERKSTOFF2
1070
     4
1000
10
1002
{
1002
}
1002
}
1000
DIN987
1070
     0
1002
{
1000
POSITION
1070
     4
1000
1
1002
{
1002
}
1000
MENGE
1070
     4
1000
2
1002
{
1002
}
1000
BLATT
1070
     4
1000
3
1002
{
1002
}
1000
BENENN
1070
     4
1000
5
1002
{
1002
}
1000
BENENN2
1070
     4
1000
6
1002
{
1002
}
1000
NORM
1070
     4
1000
7
1002
{
1002
}
1000
NORM2
1070
     4
1000
8
1002
{
1002
}
1000
WERKSTOFF
1070
     4
1000
9
1002
{
1002
}
1000
WERKSTOFF2
1070
     4
1000
10
1002
{
1002
}
1002
}
1002
}
  0
APPID
  5
F1C
330
9
100
AcDbSymbolTableRecord
100
AcDbRegAppTableRecord
  2
GENIUS_GENCFG1_13
 70
     0
1001
GENIUS_GENCFG_13
1071
881171123
1000
F1C
1000
GEN@LAYER@DEFS
1070
     9
1000
GenCfgObject
1000
GenCfgShort
1000
GenCfgReal
1000
GenCfgBool
1000
GenCfgString
1000
GenCfgDim
1000
GenCfgAttrInf
1000
GenCfgLaySection
1000
GenCfgLayer
1000
Basic
1070
     0
1002
{
1000
0
1070
     8
1000
0
1002
{
1000
Color
1070
     1
1070
     7
1002
{
1002
}
1000
LType
1070
     4
1000
CONTINUOUS
1002
{
1002
}
1000
Base
1070
     3
1070
     0
1002
{
1002
}
1002
}
1000
1
1070
     8
1000
1
1002
{
1000
Color
1070
     1
1070
    14
1002
{
1002
}
1000
LType
1070
     4
1000
CONTINUOUS
1002
{
1002
}
1000
Base
1070
     3
1070
     0
1002
{
1002
}
1002
}
1000
2
1070
     8
1000
2
1002
{
1000
Color
1070
     1
1070
     5
1002
{
1002
}
1000
LType
1070
     4
1000
CONTINUOUS
1002
{
1002
}
1000
Base
1070
     3
1070
     0
1002
{
1002
}
1002
}
1000
3
1070
     8
1000
3
1002
{
1000
Color
1070
     1
1070
     6
1002
{
1002
}
1000
LType
1070
     4
1000
GEN3
1002
{
1002
}
1000
Base
1070
     3
1070
     0
1002
{
1002
}
1002
}
1000
4
1070
     8
1000
4
1002
{
1000
Color
1070
     1
1070
     3
1002
{
1002
}
1000
LType
1070
     4
1000
CONTINUOUS
1002
{
1002
}
1000
Base
1070
     3
1070
     0
1002
{
1002
}
1002
}
1000
5
1070
     8
1000
5
1002
{
1000
Color
1070
     1
1070
     3
1002
{
1002
}
1000
LType
1070
     4
1000
CONTINUOUS
1002
{
1002
}
1000
Base
1070
     3
1070
     0
1002
{
1002
}
1002
}
1000
6
1070
     8
1000
6
1002
{
1000
Color
1070
     1
1070
     2
1002
{
1002
}
1000
LType
1070
     4
1000
CONTINUOUS
1002
{
1002
}
1000
Base
1070
     3
1070
     0
1002
{
1002
}
1002
}
1000
7
1070
     8
1000
7
1002
{
1000
Color
1070
     1
1070
     4
1002
{
1002
}
1000
LType
1070
     4
1000
GEN7
1002
{
1002
}
1000
Base
1070
     3
1070
     0
1002
{
1002
}
1002
}
1000
8
1070
     8
1000
8
1002
{
1000
Color
1070
     1
1070
     1
1002
{
1002
}
1000
LType
1070
     4
1000
CONTINUOUS
1002
{
1002
}
1000
Base
1070
     3
1070
     0
1002
{
1002
}
1002
}
1000
3A
1070
     8
1000
3A
1002
{
1000
Color
1070
     1
1070
     6
1002
{
1002
}
1000
LType
1070
     4
1000
GEN3A
1002
{
1002
}
1000
Base
1070
     3
1070
     0
1002
{
1002
}
1002
}
1000
7A
1070
     8
1000
7A
1002
{
1000
Color
1070
     1
1070
     4
1002
{
1002
}
1000
LType
1070
     4
1000
GEN7A
1002
{
1002
}
1000
Base
1070
     3
1070
     0
1002
{
1002
}
1002
}
1000
2A
1070
     8
1000
2A
1002
{
1000
Color
1070
     1
1070
     7
1002
{
1002
}
1000
LType
1070
     4
1000
GEN7
1002
{
1002
}
1000
Base
1070
     3
1070
     0
1002
{
1002
}
1002
}
1000
4A
1070
     8
1000
4A
1002
{
1000
Color
1070
     1
1070
     3
1002
{
1002
}
1000
LType
1070
     4
1000
GEN4A
1002
{
1002
}
1000
Base
1070
     3
1070
     0
1002
{
1002
}
1002
}
1000
9
1070
     8
1000
9
1002
{
1000
Color
1070
     1
1070
   253
1002
{
1002
}
1000
LType
1070
     4
1000
CONTINUOUS
1002
{
1002
}
1000
Base
1070
     3
1070
     0
1002
{
1002
}
1002
}
1002
}
1000
Standard
1070
     0
1002
{
1000
0N
1070
     8
1000
0N
1002
{
1000
Color
1070
     1
1070
     7
1002
{
1002
}
1000
LType
1070
     4
1000
CONTINUOUS
1002
{
1002
}
1000
Base
1070
     3
1070
     0
1002
{
1002
}
1002
}
1000
1N
1070
     8
1000
1N
1002
{
1000
Color
1070
     1
1070
    14
1002
{
1002
}
1000
LType
1070
     4
1000
CONTINUOUS
1002
{
1002
}
1000
Base
1070
     3
1070
     0
1002
{
1002
}
1002
}
1000
2N
1070
     8
1000
2N
1002
{
1000
Color
1070
     1
1070
     5
1002
{
1002
}
1000
LType
1070
     4
1000
CONTINUOUS
1002
{
1002
}
1000
Base
1070
     3
1070
     0
1002
{
1002
}
1002
}
1000
3N
1070
     8
1000
3N
1002
{
1000
Color
1070
     1
1070
     6
1002
{
1002
}
1000
LType
1070
     4
1000
GEN3
1002
{
1002
}
1000
Base
1070
     3
1070
     0
1002
{
1002
}
1002
}
1000
4N
1070
     8
1000
4N
1002
{
1000
Color
1070
     1
1070
     3
1002
{
1002
}
1000
LType
1070
     4
1000
CONTINUOUS
1002
{
1002
}
1000
Base
1070
     3
1070
     0
1002
{
1002
}
1002
}
1000
5N
1070
     8
1000
5N
1002
{
1000
Color
1070
     1
1070
     3
1002
{
1002
}
1000
LType
1070
     4
1000
CONTINUOUS
1002
{
1002
}
1000
Base
1070
     3
1070
     0
1002
{
1002
}
1002
}
1000
6N
1070
     8
1000
6N
1002
{
1000
Color
1070
     1
1070
     2
1002
{
1002
}
1000
LType
1070
     4
1000
CONTINUOUS
1002
{
1002
}
1000
Base
1070
     3
1070
     0
1002
{
1002
}
1002
}
1000
7N
1070
     8
1000
7N
1002
{
1000
Color
1070
     1
1070
     4
1002
{
1002
}
1000
LType
1070
     4
1000
GEN7
1002
{
1002
}
1000
Base
1070
     3
1070
     0
1002
{
1002
}
1002
}
1000
8N
1070
     8
1000
8N
1002
{
1000
Color
1070
     1
1070
     1
1002
{
1002
}
1000
LType
1070
     4
1000
CONTINUOUS
1002
{
1002
}
1000
Base
1070
     3
1070
     0
1002
{
1002
}
1002
}
1000
3AN
1070
     8
1000
3AN
1002
{
1000
Color
1070
     1
1070
     6
1002
{
1002
}
1000
LType
1070
     4
1000
GEN3A
1002
{
1002
}
1000
Base
1070
     3
1070
     0
1002
{
1002
}
1002
}
1000
7AN
1070
     8
1000
7AN
1002
{
1000
Color
1070
     1
1070
     4
1002
{
1002
}
1000
LType
1070
     4
1000
GEN7A
1002
{
1002
}
1000
Base
1070
     3
1070
     0
1002
{
1002
}
1002
}
1000
2AN
1070
     8
1000
2AN
1002
{
1000
Color
1070
     1
1070
     7
1002
{
1002
}
1000
LType
1070
     4
1000
GEN7
1002
{
1002
}
1000
Base
1070
     3
1070
     0
1002
{
1002
}
1002
}
1000
4AN
1070
     8
1000
4AN
1002
{
1000
Color
1070
     1
1070
     3
1002
{
1002
}
1000
LType
1070
     4
1000
GEN4A
1002
{
1002
}
1000
Base
1070
     3
1070
     0
1002
{
1002
}
1002
}
1000
9N
1070
     8
1000
9N
1002
{
1000
Color
1070
     1
1070
   253
1002
{
1002
}
1000
LType
1070
     4
1000
CONTINUOUS
1002
{
1002
}
1000
Base
1070
     3
1070
     0
1002
{
1002
}
1002
}
1002
}
1000
Extra
1070
     0
1002
{
1000
Klin
1070
     8
1000
KLIN
1002
{
1000
Color
1070
     1
1070
     1
1002
{
1002
}
1000
LType
1070
     4
1000
CONTINUOUS
1002
{
1002
}
1000
Base
1070
     3
1070
     1
1002
{
1002
}
1002
}
1000
Info
1070
     8
1000
INFO
1002
{
1000
Color
1070
     1
1070
     4
1002
{
1002
}
1000
LType
1070
     4
1000
CONTINUOUS
1002
{
1002
}
1000
Base
1070
     3
1070
     1
1002
{
1002
}
1002
}
1000
Rahm2
1070
     8
1000
RAHM2
1002
{
1000
Color
1070
     1
1070
     1
1002
{
1002
}
1000
LType
1070
     4
1000
CONTINUOUS
1002
{
1002
}
1000
Base
1070
     3
1070
     1
1002
{
1002
}
1002
}
1000
Rahm3
1070
     8
1000
RAHM3
1002
{
1000
Color
1070
     1
1070
     2
1002
{
1002
}
1000
LType
1070
     4
1000
CONTINUOUS
1002
{
1002
}
1000
Base
1070
     3
1070
     1
1002
{
1002
}
1002
}
1000
Rahm5
1070
     8
1000
RAHM5
1002
{
1000
Color
1070
     1
1070
     7
1002
{
1002
}
1000
LType
1070
     4
1000
CONTINUOUS
1002
{
1002
}
1000
Base
1070
     3
1070
     1
1002
{
1002
}
1002
}
1000
View
1070
     8
1000
VIEW
1002
{
1000
Color
1070
     1
1070
     1
1002
{
1002
}
1000
LType
1070
     4
1000
CONTINUOUS
1002
{
1002
}
1000
Base
1070
     3
1070
     1
1002
{
1002
}
1002
}
1000
Behind
1070
     8
1000
BEHIND
1002
{
1000
Color
1070
     1
1070
   253
1002
{
1002
}
1000
LType
1070
     4
1000
CONTINUOUS
1002
{
1002
}
1000
Base
1070
     3
1070
     1
1002
{
1002
}
1002
}
1002
}
  0
APPID
  5
F1D
330
9
100
AcDbSymbolTableRecord
100
AcDbRegAppTableRecord
  2
GENIUS_GENCFG2_13
 70
     0
1001
GENIUS_GENCFG_13
1071
881171123
1000
F1D
1000
GEN@LAYER@ENTSORT
1070
    10
1000
GenCfgObject
1000
GenCfgShort
1000
GenCfgReal
1000
GenCfgBool
1000
GenCfgString
1000
GenCfgDim
1000
GenCfgAttrInf
1000
GenCfgLaySection
1000
GenCfgLayer
1000
GenCfgEntSort
1000
ALTR
1070
     9
1000
4
1002
{
1000
Class
1070
     4
1000

1002
{
1002
}
1000
Color
1070
     1
1070
     7
1002
{
1002
}
1000
LType
1070
     4
1000
GEN3A
1002
{
1002
}
1002
}
1000
BELI
1070
     9
1000
4
1002
{
1000
Class
1070
     4
1000

1002
{
1002
}
1000
Color
1070
     1
1070
   256
1002
{
1002
}
1000
LType
1070
     4
1000
BYLAYER
1002
{
1002
}
1002
}
1000
BHNV
1070
     9
1000
9
1002
{
1000
Class
1070
     4
1000
INV
1002
{
1002
}
1000
Color
1070
     1
1070
   256
1002
{
1002
}
1000
LType
1070
     4
1000
BYLAYER
1002
{
1002
}
1002
}
1000
BHNVS
1070
     9
1000
BEHIND
1002
{
1000
Class
1070
     4
1000
INV
1002
{
1002
}
1000
Color
1070
     1
1070
   256
1002
{
1002
}
1000
LType
1070
     4
1000
BYLAYER
1002
{
1002
}
1002
}
1000
BLID
1070
     9
1000
4A
1002
{
1000
Class
1070
     4
1000

1002
{
1002
}
1000
Color
1070
     1
1070
   256
1002
{
1002
}
1000
LType
1070
     4
1000
BYLAYER
1002
{
1002
}
1002
}
1000
BOAP
1070
     9
1000
4A
1002
{
1000
Class
1070
     4
1000

1002
{
1002
}
1000
Color
1070
     1
1070
   256
1002
{
1002
}
1000
LType
1070
     4
1000
BYLAYER
1002
{
1002
}
1002
}
1000
BOR2
1070
     9
1000
RAHM2
1002
{
1000
Class
1070
     4
1000
SPZ,SYM
1002
{
1002
}
1000
Color
1070
     1
1070
   256
1002
{
1002
}
1000
LType
1070
     4
1000
BYLAYER
1002
{
1002
}
1002
}
1000
BOR3
1070
     9
1000
RAHM3
1002
{
1000
Class
1070
     4
1000
SPZ,SYM
1002
{
1002
}
1000
Color
1070
     1
1070
   256
1002
{
1002
}
1000
LType
1070
     4
1000
BYLAYER
1002
{
1002
}
1002
}
1000
BOR5
1070
     9
1000
RAHM5
1002
{
1000
Class
1070
     4
1000
SPZ,SYM
1002
{
1002
}
1000
Color
1070
     1
1070
   256
1002
{
1002
}
1000
LType
1070
     4
1000
BYLAYER
1002
{
1002
}
1002
}
1000
BOR7
1070
     9
1000
RAHM5
1002
{
1000
Class
1070
     4
1000
SPZ,SYM
1002
{
1002
}
1000
Color
1070
     1
1070
     7
1002
{
1002
}
1000
LType
1070
     4
1000
CONTINUOUS
1002
{
1002
}
1002
}
1000
BPAP
1070
     9
1000
4A
1002
{
1000
Class
1070
     4
1000

1002
{
1002
}
1000
Color
1070
     1
1070
   256
1002
{
1002
}
1000
LType
1070
     4
1000
BYLAYER
1002
{
1002
}
1002
}
1000
BPEX
1070
     9
1000
4A
1002
{
1000
Class
1070
     4
1000

1002
{
1002
}
1000
Color
1070
     1
1070
   256
1002
{
1002
}
1000
LType
1070
     4
1000
BYLAYER
1002
{
1002
}
1002
}
1000
BTDI
1070
     9
1000
5
1002
{
1000
Class
1070
     4
1000
DIM,SYM
1002
{
1002
}
1000
Color
1070
     1
1070
   256
1002
{
1002
}
1000
LType
1070
     4
1000
BYLAYER
1002
{
1002
}
1002
}
1000
CAL2
1070
     9
1000
4
1002
{
1000
Class
1070
     4
1000
SYM
1002
{
1002
}
1000
Color
1070
     1
1070
   256
1002
{
1002
}
1000
LType
1070
     4
1000
BYLAYER
1002
{
1002
}
1002
}
1000
CAL3
1070
     9
1000
4
1002
{
1000
Class
1070
     4
1000
SYM
1002
{
1002
}
1000
Color
1070
     1
1070
     2
1002
{
1002
}
1000
LType
1070
     4
1000
BYLAYER
1002
{
1002
}
1002
}
1000
CAL5
1070
     9
1000
4
1002
{
1000
Class
1070
     4
1000
SYM
1002
{
1002
}
1000
Color
1070
     1
1070
     7
1002
{
1002
}
1000
LType
1070
     4
1000
BYLAYER
1002
{
1002
}
1002
}
1000
CAL7
1070
     9
1000
4
1002
{
1000
Class
1070
     4
1000
SYM
1002
{
1002
}
1000
Color
1070
     1
1070
     5
1002
{
1002
}
1000
LType
1070
     4
1000
BYLAYER
1002
{
1002
}
1002
}
1000
CENN
1070
     9
1000
7A
1002
{
1000
Class
1070
     4
1000
CEN
1002
{
1002
}
1000
Color
1070
     1
1070
   256
1002
{
1002
}
1000
LType
1070
     4
1000
BYLAYER
1002
{
1002
}
1002
}
1000
CENW
1070
     9
1000
7
1002
{
1000
Class
1070
     4
1000
CEN
1002
{
1002
}
1000
Color
1070
     1
1070
   256
1002
{
1002
}
1000
LType
1070
     4
1000
BYLAYER
1002
{
1002
}
1002
}
1000
CLIN
1070
     9
1000
KLIN
1002
{
1000
Class
1070
     4
1000
SPZ
1002
{
1002
}
1000
Color
1070
     1
1070
   256
1002
{
1002
}
1000
LType
1070
     4
1000
BYLAYER
1002
{
1002
}
1002
}
1000
CON1
1070
     9
1000
0
1002
{
1000
Class
1070
     4
1000
CON,BGD
1002
{
1002
}
1000
Color
1070
     1
1070
   256
1002
{
1002
}
1000
LType
1070
     4
1000
BYLAYER
1002
{
1002
}
1002
}
1000
CON2
1070
     9
1000
1
1002
{
1000
Class
1070
     4
1000
CON,BGD
1002
{
1002
}
1000
Color
1070
     1
1070
   256
1002
{
1002
}
1000
LType
1070
     4
1000
BYLAYER
1002
{
1002
}
1002
}
1000
CON3
1070
     9
1000
2
1002
{
1000
Class
1070
     4
1000
CON,BGD
1002
{
1002
}
1000
Color
1070
     1
1070
   256
1002
{
1002
}
1000
LType
1070
     4
1000
BYLAYER
1002
{
1002
}
1002
}
1000
CON4
1070
     9
1000
2
1002
{
1000
Class
1070
     4
1000
CON,BGD
1002
{
1002
}
1000
Color
1070
     1
1070
   256
1002
{
1002
}
1000
LType
1070
     4
1000
BYLAYER
1002
{
1002
}
1002
}
1000
DERP
1070
     9
1000
4
1002
{
1000
Class
1070
     4
1000

1002
{
1002
}
1000
Color
1070
     1
1070
   256
1002
{
1002
}
1000
LType
1070
     4
1000
BYLAYER
1002
{
1002
}
1002
}
1000
DETA
1070
     9
1000
4
1002
{
1000
Class
1070
     4
1000

1002
{
1002
}
1000
Color
1070
     1
1070
   256
1002
{
1002
}
1000
LType
1070
     4
1000
BYLAYER
1002
{
1002
}
1002
}
1000
DIAG
1070
     9
1000
5
1002
{
1000
Class
1070
     4
1000
SYM
1002
{
1002
}
1000
Color
1070
     1
1070
   256
1002
{
1002
}
1000
LType
1070
     4
1000
BYLAYER
1002
{
1002
}
1002
}
1000
DILI
1070
     9
1000
5
1002
{
1000
Class
1070
     4
1000
DIM,SYM
1002
{
1002
}
1000
Color
1070
     1
1070
   256
1002
{
1002
}
1000
LType
1070
     4
1000
BYLAYER
1002
{
1002
}
1002
}
1000
DITX
1070
     9
1000
5
1002
{
1000
Class
1070
     4
1000
DIM,SYM
1002
{
1002
}
1000
Color
1070
     1
1070
     2
1002
{
1002
}
1000
LType
1070
     4
1000
CONTINUOUS
1002
{
1002
}
1002
}
1000
DITO2
1070
     9
1000
5
1002
{
1000
Class
1070
     4
1000
DIM,SYM
1002
{
1002
}
1000
Color
1070
     1
1070
     3
1002
{
1002
}
1000
LType
1070
     4
1000
BYLAYER
1002
{
1002
}
1002
}
1000
DITO3
1070
     9
1000
5
1002
{
1000
Class
1070
     4
1000
DIM,SYM
1002
{
1002
}
1000
Color
1070
     1
1070
     2
1002
{
1002
}
1000
LType
1070
     4
1000
BYLAYER
1002
{
1002
}
1002
}
1000
DIXL
1070
     9
1000
5
1002
{
1000
Class
1070
     4
1000
DIM,SYM
1002
{
1002
}
1000
Color
1070
     1
1070
   256
1002
{
1002
}
1000
LType
1070
     4
1000
BYLAYER
1002
{
1002
}
1002
}
1000
EXMP
1070
     9
1000
4A
1002
{
1000
Class
1070
     4
1000

1002
{
1002
}
1000
Color
1070
     1
1070
   256
1002
{
1002
}
1000
LType
1070
     4
1000
BYLAYER
1002
{
1002
}
1002
}
1000
FEMN
1070
     9
1000
8
1002
{
1000
Class
1070
     4
1000

1002
{
1002
}
1000
Color
1070
     1
1070
   256
1002
{
1002
}
1000
LType
1070
     4
1000
BYLAYER
1002
{
1002
}
1002
}
1000
FEMPN
1070
     9
1000
8
1002
{
1000
Class
1070
     4
1000
SYM
1002
{
1002
}
1000
Color
1070
     1
1070
     3
1002
{
1002
}
1000
LType
1070
     4
1000
BYLAYER
1002
{
1002
}
1002
}
1000
FEMSP
1070
     9
1000
4A
1002
{
1000
Class
1070
     4
1000

1002
{
1002
}
1000
Color
1070
     1
1070
   256
1002
{
1002
}
1000
LType
1070
     4
1000
CONTINUOUS
1002
{
1002
}
1002
}
1000
FEMST
1070
     9
1000
4A
1002
{
1000
Class
1070
     4
1000
SYM
1002
{
1002
}
1000
Color
1070
     1
1070
     3
1002
{
1002
}
1000
LType
1070
     4
1000
BYLAYER
1002
{
1002
}
1002
}
1000
FEMVN
1070
     9
1000
2
1002
{
1000
Class
1070
     4
1000
CON
1002
{
1002
}
1000
Color
1070
     1
1070
   256
1002
{
1002
}
1000
LType
1070
     4
1000
BYLAYER
1002
{
1002
}
1002
}
1000
FEMVT
1070
     9
1000
2
1002
{
1000
Class
1070
     4
1000
SYM
1002
{
1002
}
1000
Color
1070
     1
1070
     3
1002
{
1002
}
1000
LType
1070
     4
1000
BYLAYER
1002
{
1002
}
1002
}
1000
FLAT
1070
     9
1000
0
1002
{
1000
Class
1070
     4
1000

1002
{
1002
}
1000
Color
1070
     1
1070
   256
1002
{
1002
}
1000
LType
1070
     4
1000
BYLAYER
1002
{
1002
}
1002
}
1000
FRAR
1070
     9
1000
4A
1002
{
1000
Class
1070
     4
1000

1002
{
1002
}
1000
Color
1070
     1
1070
   256
1002
{
1002
}
1000
LType
1070
     4
1000
BYLAYER
1002
{
1002
}
1002
}
1000
GRLI
1070
     9
1000
5
1002
{
1000
Class
1070
     4
1000
SYM
1002
{
1002
}
1000
Color
1070
     1
1070
   256
1002
{
1002
}
1000
LType
1070
     4
1000
BYLAYER
1002
{
1002
}
1002
}
1000
GVLI
1070
     9
1000
4A
1002
{
1000
Class
1070
     4
1000

1002
{
1002
}
1000
Color
1070
     1
1070
   256
1002
{
1002
}
1000
LType
1070
     4
1000
BYLAYER
1002
{
1002
}
1002
}
1000
HATC
1070
     9
1000
8
1002
{
1000
Class
1070
     4
1000
HTC,BGD
1002
{
1002
}
1000
Color
1070
     1
1070
   256
1002
{
1002
}
1000
LType
1070
     4
1000
BYLAYER
1002
{
1002
}
1002
}
1000
HIDN
1070
     9
1000
3A
1002
{
1000
Class
1070
     4
1000
HID,BGD
1002
{
1002
}
1000
Color
1070
     1
1070
   256
1002
{
1002
}
1000
LType
1070
     4
1000
BYLAYER
1002
{
1002
}
1002
}
1000
HIDW
1070
     9
1000
3
1002
{
1000
Class
1070
     4
1000
HID,BGD
1002
{
1002
}
1000
Color
1070
     1
1070
   256
1002
{
1002
}
1000
LType
1070
     4
1000
BYLAYER
1002
{
1002
}
1002
}
1000
HLIN
1070
     9
1000
4
1002
{
1000
Class
1070
     4
1000
BGD
1002
{
1002
}
1000
Color
1070
     1
1070
   256
1002
{
1002
}
1000
LType
1070
     4
1000
BYLAYER
1002
{
1002
}
1002
}
1000
HOCN
1070
     9
1000
7A
1002
{
1000
Class
1070
     4
1000
CEN
1002
{
1002
}
1000
Color
1070
     1
1070
   256
1002
{
1002
}
1000
LType
1070
     4
1000
BYLAYER
1002
{
1002
}
1002
}
1000
HOCW
1070
     9
1000
7
1002
{
1000
Class
1070
     4
1000
CEN
1002
{
1002
}
1000
Color
1070
     1
1070
   256
1002
{
1002
}
1000
LType
1070
     4
1000
BYLAYER
1002
{
1002
}
1002
}
1000
INFO
1070
     9
1000
INFO
1002
{
1000
Class
1070
     4
1000
SPZ,SYM
1002
{
1002
}
1000
Color
1070
     1
1070
   256
1002
{
1002
}
1000
LType
1070
     4
1000
BYLAYER
1002
{
1002
}
1002
}
1000
LADI
1070
     9
1000
4
1002
{
1000
Class
1070
     4
1000
BGD
1002
{
1002
}
1000
Color
1070
     1
1070
   256
1002
{
1002
}
1000
LType
1070
     4
1000
BYLAYER
1002
{
1002
}
1002
}
1000
LEAD
1070
     9
1000
5
1002
{
1000
Class
1070
     4
1000
SYM
1002
{
1002
}
1000
Color
1070
     1
1070
   256
1002
{
1002
}
1000
LType
1070
     4
1000
BYLAYER
1002
{
1002
}
1002
}
1000
N_BHNV
1070
     9
1000
9N
1002
{
1000
Class
1070
     4
1000
INV
1002
{
1002
}
1000
Color
1070
     1
1070
   256
1002
{
1002
}
1000
LType
1070
     4
1000
BYLAYER
1002
{
1002
}
1002
}
1000
N_CON1
1070
     9
1000
0N
1002
{
1000
Class
1070
     4
1000
CON,BGD
1002
{
1002
}
1000
Color
1070
     1
1070
   256
1002
{
1002
}
1000
LType
1070
     4
1000
BYLAYER
1002
{
1002
}
1002
}
1000
N_CON2
1070
     9
1000
1N
1002
{
1000
Class
1070
     4
1000
CON,BGD
1002
{
1002
}
1000
Color
1070
     1
1070
   256
1002
{
1002
}
1000
LType
1070
     4
1000
BYLAYER
1002
{
1002
}
1002
}
1000
N_CON3
1070
     9
1000
2N
1002
{
1000
Class
1070
     4
1000
CON,BGD
1002
{
1002
}
1000
Color
1070
     1
1070
   256
1002
{
1002
}
1000
LType
1070
     4
1000
BYLAYER
1002
{
1002
}
1002
}
1000
N_CON4
1070
     9
1000
2N
1002
{
1000
Class
1070
     4
1000
CON,BGD
1002
{
1002
}
1000
Color
1070
     1
1070
   256
1002
{
1002
}
1000
LType
1070
     4
1000
BYLAYER
1002
{
1002
}
1002
}
1000
N_CENN
1070
     9
1000
7AN
1002
{
1000
Class
1070
     4
1000
CEN
1002
{
1002
}
1000
Color
1070
     1
1070
   256
1002
{
1002
}
1000
LType
1070
     4
1000
BYLAYER
1002
{
1002
}
1002
}
1000
N_CENW
1070
     9
1000
7N
1002
{
1000
Class
1070
     4
1000
CEN
1002
{
1002
}
1000
Color
1070
     1
1070
   256
1002
{
1002
}
1000
LType
1070
     4
1000
BYLAYER
1002
{
1002
}
1002
}
1000
N_DILI
1070
     9
1000
5N
1002
{
1000
Class
1070
     4
1000
DIM,SYM
1002
{
1002
}
1000
Color
1070
     1
1070
   256
1002
{
1002
}
1000
LType
1070
     4
1000
BYLAYER
1002
{
1002
}
1002
}
1000
N_DITX
1070
     9
1000
5N
1002
{
1000
Class
1070
     4
1000
DIM,SYM
1002
{
1002
}
1000
Color
1070
     1
1070
     2
1002
{
1002
}
1000
LType
1070
     4
1000
CONTINUOUS
1002
{
1002
}
1002
}
1000
N_DIXL
1070
     9
1000
5N
1002
{
1000
Class
1070
     4
1000
DIM,SYM
1002
{
1002
}
1000
Color
1070
     1
1070
   256
1002
{
1002
}
1000
LType
1070
     4
1000
BYLAYER
1002
{
1002
}
1002
}
1000
N_HATC
1070
     9
1000
8N
1002
{
1000
Class
1070
     4
1000
HTC,BGD
1002
{
1002
}
1000
Color
1070
     1
1070
   256
1002
{
1002
}
1000
LType
1070
     4
1000
BYLAYER
1002
{
1002
}
1002
}
1000
N_HIDN
1070
     9
1000
3AN
1002
{
1000
Class
1070
     4
1000
HID,BGD
1002
{
1002
}
1000
Color
1070
     1
1070
   256
1002
{
1002
}
1000
LType
1070
     4
1000
BYLAYER
1002
{
1002
}
1002
}
1000
N_HIDW
1070
     9
1000
3N
1002
{
1000
Class
1070
     4
1000
HID,BGD
1002
{
1002
}
1000
Color
1070
     1
1070
   256
1002
{
1002
}
1000
LType
1070
     4
1000
BYLAYER
1002
{
1002
}
1002
}
1000
N_PHAN
1070
     9
1000
4AN
1002
{
1000
Class
1070
     4
1000

1002
{
1002
}
1000
Color
1070
     1
1070
   256
1002
{
1002
}
1000
LType
1070
     4
1000
BYLAYER
1002
{
1002
}
1002
}
1000
N_POSL
1070
     9
1000
5N
1002
{
1000
Class
1070
     4
1000
SYM
1002
{
1002
}
1000
Color
1070
     1
1070
   256
1002
{
1002
}
1000
LType
1070
     4
1000
BYLAYER
1002
{
1002
}
1002
}
1000
N_TCON
1070
     9
1000
0N
1002
{
1000
Class
1070
     4
1000
CON,BGD
1002
{
1002
}
1000
Color
1070
     1
1070
   256
1002
{
1002
}
1000
LType
1070
     4
1000
BYLAYER
1002
{
1002
}
1002
}
1000
N_THLI
1070
     9
1000
4N
1002
{
1000
Class
1070
     4
1000
BGD
1002
{
1002
}
1000
Color
1070
     1
1070
   256
1002
{
1002
}
1000
LType
1070
     4
1000
BYLAYER
1002
{
1002
}
1002
}
1000
N_TLEN
1070
     9
1000
0N
1002
{
1000
Class
1070
     4
1000
CON,BGD
1002
{
1002
}
1000
Color
1070
     1
1070
   256
1002
{
1002
}
1000
LType
1070
     4
1000
BYLAYER
1002
{
1002
}
1002
}
1000
N_TXT3
1070
     9
1000
6N
1002
{
1000
Class
1070
     4
1000
SYM
1002
{
1002
}
1000
Color
1070
     1
1070
   256
1002
{
1002
}
1000
LType
1070
     4
1000
BYLAYER
1002
{
1002
}
1002
}
1000
N_VPLI
1070
     9
1000
2AN
1002
{
1000
Class
1070
     4
1000

1002
{
1002
}
1000
Color
1070
     1
1070
   256
1002
{
1002
}
1000
LType
1070
     4
1000
BYLAYER
1002
{
1002
}
1002
}
1000
PAL2
1070
     9
1000
RAHM2
1002
{
1000
Class
1070
     4
1000
SPZ,SYM
1002
{
1002
}
1000
Color
1070
     1
1070
   256
1002
{
1002
}
1000
LType
1070
     4
1000
BYLAYER
1002
{
1002
}
1002
}
1000
PAL3
1070
     9
1000
RAHM3
1002
{
1000
Class
1070
     4
1000
SPZ,SYM
1002
{
1002
}
1000
Color
1070
     1
1070
   256
1002
{
1002
}
1000
LType
1070
     4
1000
BYLAYER
1002
{
1002
}
1002
}
1000
PAL5
1070
     9
1000
RAHM5
1002
{
1000
Class
1070
     4
1000
SPZ,SYM
1002
{
1002
}
1000
Color
1070
     1
1070
   256
1002
{
1002
}
1000
LType
1070
     4
1000
BYLAYER
1002
{
1002
}
1002
}
1000
PAL7
1070
     9
1000
RAHM5
1002
{
1000
Class
1070
     4
1000
SPZ,SYM
1002
{
1002
}
1000
Color
1070
     1
1070
     7
1002
{
1002
}
1000
LType
1070
     4
1000
CONTINUOUS
1002
{
1002
}
1002
}
1000
PHAN
1070
     9
1000
4A
1002
{
1000
Class
1070
     4
1000

1002
{
1002
}
1000
Color
1070
     1
1070
   256
1002
{
1002
}
1000
LType
1070
     4
1000
BYLAYER
1002
{
1002
}
1002
}
1000
POSL
1070
     9
1000
5
1002
{
1000
Class
1070
     4
1000
SYM
1002
{
1002
}
1000
Color
1070
     1
1070
   256
1002
{
1002
}
1000
LType
1070
     4
1000
BYLAYER
1002
{
1002
}
1002
}
1000
POSN
1070
     9
1000
6
1002
{
1000
Class
1070
     4
1000
SYM
1002
{
1002
}
1000
Color
1070
     1
1070
     7
1002
{
1002
}
1000
LType
1070
     4
1000
BYLAYER
1002
{
1002
}
1002
}
1000
POSREF
1070
     9
1000
6
1002
{
1000
Class
1070
     4
1000
SYM
1002
{
1002
}
1000
Color
1070
     1
1070
     5
1002
{
1002
}
1000
LType
1070
     4
1000
BYLAYER
1002
{
1002
}
1002
}
1000
POSX
1070
     9
1000
5
1002
{
1000
Class
1070
     4
1000
SYM
1002
{
1002
}
1000
Color
1070
     1
1070
     2
1002
{
1002
}
1000
LType
1070
     4
1000
CONTINUOUS
1002
{
1002
}
1002
}
1000
PSEC
1070
     9
1000
4A
1002
{
1000
Class
1070
     4
1000

1002
{
1002
}
1000
Color
1070
     1
1070
   256
1002
{
1002
}
1000
LType
1070
     4
1000
BYLAYER
1002
{
1002
}
1002
}
1000
RCGN
1070
     9
1000
7A
1002
{
1000
Class
1070
     4
1000
CEN
1002
{
1002
}
1000
Color
1070
     1
1070
   256
1002
{
1002
}
1000
LType
1070
     4
1000
BYLAYER
1002
{
1002
}
1002
}
1000
RCGW
1070
     9
1000
7
1002
{
1000
Class
1070
     4
1000
CEN
1002
{
1002
}
1000
Color
1070
     1
1070
   256
1002
{
1002
}
1000
LType
1070
     4
1000
BYLAYER
1002
{
1002
}
1002
}
1000
RFDI
1070
     9
1000
4
1002
{
1000
Class
1070
     4
1000
BGD
1002
{
1002
}
1000
Color
1070
     1
1070
   256
1002
{
1002
}
1000
LType
1070
     4
1000
BYLAYER
1002
{
1002
}
1002
}
1000
RQTR
1070
     9
1000
4
1002
{
1000
Class
1070
     4
1000

1002
{
1002
}
1000
Color
1070
     1
1070
     7
1002
{
1002
}
1000
LType
1070
     4
1000
GEN7A
1002
{
1002
}
1002
}
1000
RSBO
1070
     9
1000
4
1002
{
1000
Class
1070
     4
1000
BGD
1002
{
1002
}
1000
Color
1070
     1
1070
   256
1002
{
1002
}
1000
LType
1070
     4
1000
BYLAYER
1002
{
1002
}
1002
}
1000
SBRK
1070
     9
1000
4
1002
{
1000
Class
1070
     4
1000
BGD
1002
{
1002
}
1000
Color
1070
     1
1070
   256
1002
{
1002
}
1000
LType
1070
     4
1000
BYLAYER
1002
{
1002
}
1002
}
1000
SCEN
1070
     9
1000
7
1002
{
1000
Class
1070
     4
1000

1002
{
1002
}
1000
Color
1070
     1
1070
   256
1002
{
1002
}
1000
LType
1070
     4
1000
CONTINUOUS
1002
{
1002
}
1002
}
1000
SECT
1070
     9
1000
4
1002
{
1000
Class
1070
     4
1000
BGD
1002
{
1002
}
1000
Color
1070
     1
1070
   256
1002
{
1002
}
1000
LType
1070
     4
1000
BYLAYER
1002
{
1002
}
1002
}
1000
SELN
1070
     9
1000
7A
1002
{
1000
Class
1070
     4
1000

1002
{
1002
}
1000
Color
1070
     1
1070
   256
1002
{
1002
}
1000
LType
1070
     4
1000
BYLAYER
1002
{
1002
}
1002
}
1000
SELW
1070
     9
1000
7
1002
{
1000
Class
1070
     4
1000

1002
{
1002
}
1000
Color
1070
     1
1070
   256
1002
{
1002
}
1000
LType
1070
     4
1000
BYLAYER
1002
{
1002
}
1002
}
1000
SSYS
1070
     9
1000
0
1002
{
1000
Class
1070
     4
1000

1002
{
1002
}
1000
Color
1070
     1
1070
   256
1002
{
1002
}
1000
LType
1070
     4
1000
BYLAYER
1002
{
1002
}
1002
}
1000
STLI
1070
     9
1000
4
1002
{
1000
Class
1070
     4
1000

1002
{
1002
}
1000
Color
1070
     1
1070
     7
1002
{
1002
}
1000
LType
1070
     4
1000
GEN3A
1002
{
1002
}
1002
}
1000
SYB1
1070
     9
1000
5
1002
{
1000
Class
1070
     4
1000
SYM
1002
{
1002
}
1000
Color
1070
     1
1070
   256
1002
{
1002
}
1000
LType
1070
     4
1000
BYLAYER
1002
{
1002
}
1002
}
1000
SYB2
1070
     9
1000
5
1002
{
1000
Class
1070
     4
1000
SYM
1002
{
1002
}
1000
Color
1070
     1
1070
   256
1002
{
1002
}
1000
LType
1070
     4
1000
BYLAYER
1002
{
1002
}
1002
}
1000
SYB3
1070
     9
1000
6
1002
{
1000
Class
1070
     4
1000
SYM
1002
{
1002
}
1000
Color
1070
     1
1070
   256
1002
{
1002
}
1000
LType
1070
     4
1000
CONTINUOUS
1002
{
1002
}
1002
}
1000
SYB5
1070
     9
1000
5
1002
{
1000
Class
1070
     4
1000
SYM
1002
{
1002
}
1000
Color
1070
     1
1070
     7
1002
{
1002
}
1000
LType
1070
     4
1000
BYLAYER
1002
{
1002
}
1002
}
1000
SYMN
1070
     9
1000
7A
1002
{
1000
Class
1070
     4
1000
CEN
1002
{
1002
}
1000
Color
1070
     1
1070
   256
1002
{
1002
}
1000
LType
1070
     4
1000
BYLAYER
1002
{
1002
}
1002
}
1000
SYMW
1070
     9
1000
7
1002
{
1000
Class
1070
     4
1000
CEN
1002
{
1002
}
1000
Color
1070
     1
1070
   256
1002
{
1002
}
1000
LType
1070
     4
1000
BYLAYER
1002
{
1002
}
1002
}
1000
TCON
1070
     9
1000
0
1002
{
1000
Class
1070
     4
1000
CON,BGD
1002
{
1002
}
1000
Color
1070
     1
1070
   256
1002
{
1002
}
1000
LType
1070
     4
1000
BYLAYER
1002
{
1002
}
1002
}
1000
THLI
1070
     9
1000
4
1002
{
1000
Class
1070
     4
1000
BGD
1002
{
1002
}
1000
Color
1070
     1
1070
   256
1002
{
1002
}
1000
LType
1070
     4
1000
BYLAYER
1002
{
1002
}
1002
}
1000
TIT2
1070
     9
1000
RAHM2
1002
{
1000
Class
1070
     4
1000
SPZ,SYM
1002
{
1002
}
1000
Color
1070
     1
1070
   256
1002
{
1002
}
1000
LType
1070
     4
1000
BYLAYER
1002
{
1002
}
1002
}
1000
TIT3
1070
     9
1000
RAHM3
1002
{
1000
Class
1070
     4
1000
SPZ,SYM
1002
{
1002
}
1000
Color
1070
     1
1070
   256
1002
{
1002
}
1000
LType
1070
     4
1000
BYLAYER
1002
{
1002
}
1002
}
1000
TIT5
1070
     9
1000
RAHM5
1002
{
1000
Class
1070
     4
1000
SPZ,SYM
1002
{
1002
}
1000
Color
1070
     1
1070
   256
1002
{
1002
}
1000
LType
1070
     4
1000
BYLAYER
1002
{
1002
}
1002
}
1000
TIT7
1070
     9
1000
RAHM5
1002
{
1000
Class
1070
     4
1000
SPZ,SYM
1002
{
1002
}
1000
Color
1070
     1
1070
     7
1002
{
1002
}
1000
LType
1070
     4
1000
CONTINUOUS
1002
{
1002
}
1002
}
1000
TLEN
1070
     9
1000
0
1002
{
1000
Class
1070
     4
1000
CON,BGD
1002
{
1002
}
1000
Color
1070
     1
1070
   256
1002
{
1002
}
1000
LType
1070
     4
1000
BYLAYER
1002
{
1002
}
1002
}
1000
TRKN
1070
     9
1000
7A
1002
{
1000
Class
1070
     4
1000

1002
{
1002
}
1000
Color
1070
     1
1070
   256
1002
{
1002
}
1000
LType
1070
     4
1000
BYLAYER
1002
{
1002
}
1002
}
1000
TRKW
1070
     9
1000
7
1002
{
1000
Class
1070
     4
1000

1002
{
1002
}
1000
Color
1070
     1
1070
   256
1002
{
1002
}
1000
LType
1070
     4
1000
BYLAYER
1002
{
1002
}
1002
}
1000
TRLI
1070
     9
1000
4
1002
{
1000
Class
1070
     4
1000
BGD
1002
{
1002
}
1000
Color
1070
     1
1070
   256
1002
{
1002
}
1000
LType
1070
     4
1000
BYLAYER
1002
{
1002
}
1002
}
1000
TXT1
1070
     9
1000
6
1002
{
1000
Class
1070
     4
1000
SYM
1002
{
1002
}
1000
Color
1070
     1
1070
     2
1002
{
1002
}
1000
LType
1070
     4
1000
BYLAYER
1002
{
1002
}
1002
}
1000
TXT2
1070
     9
1000
6
1002
{
1000
Class
1070
     4
1000
SYM
1002
{
1002
}
1000
Color
1070
     1
1070
     2
1002
{
1002
}
1000
LType
1070
     4
1000
BYLAYER
1002
{
1002
}
1002
}
1000
TXT3
1070
     9
1000
6
1002
{
1000
Class
1070
     4
1000
SYM
1002
{
1002
}
1000
Color
1070
     1
1070
   256
1002
{
1002
}
1000
LType
1070
     4
1000
BYLAYER
1002
{
1002
}
1002
}
1000
TXT5
1070
     9
1000
6
1002
{
1000
Class
1070
     4
1000
SYM
1002
{
1002
}
1000
Color
1070
     1
1070
     7
1002
{
1002
}
1000
LType
1070
     4
1000
BYLAYER
1002
{
1002
}
1002
}
1000
TXT7
1070
     9
1000
6
1002
{
1000
Class
1070
     4
1000
SYM
1002
{
1002
}
1000
Color
1070
     1
1070
     7
1002
{
1002
}
1000
LType
1070
     4
1000
BYLAYER
1002
{
1002
}
1002
}
1000
VIEW
1070
     9
1000
VIEW
1002
{
1000
Class
1070
     4
1000
SPZ
1002
{
1002
}
1000
Color
1070
     1
1070
   256
1002
{
1002
}
1000
LType
1070
     4
1000
BYLAYER
1002
{
1002
}
1002
}
1000
VPLI
1070
     9
1000
2A
1002
{
1000
Class
1070
     4
1000

1002
{
1002
}
1000
Color
1070
     1
1070
   256
1002
{
1002
}
1000
LType
1070
     4
1000
BYLAYER
1002
{
1002
}
1002
}
1000
ZIZA
1070
     9
1000
4
1002
{
1000
Class
1070
     4
1000
BGD
1002
{
1002
}
1000
Color
1070
     1
1070
   256
1002
{
1002
}
1000
LType
1070
     4
1000
GENZIGZAG
1002
{
1002
}
1002
}
  0
APPID
  5
F1E
330
9
100
AcDbSymbolTableRecord
100
AcDbRegAppTableRecord
  2
GENIUS_GENCFG3_13
 70
     0
1001
GENIUS_GENCFG_13
1071
881171123
1000
F1E
1000
GEN@OSWIZ
1070
    12
1000
GenCfgObject
1000
GenCfgShort
1000
GenCfgReal
1000
GenCfgBool
1000
GenCfgString
1000
GenCfgDim
1000
GenCfgAttrInf
1000
GenCfgLaySection
1000
GenCfgLayer
1000
GenCfgEntSort
1000
GenCfgLType
1000
GenCfgFilter
1000
AngleStep
1070
     0
1002
{
1000
M
1070
     2
1040
10.0
1002
{
1002
}
1000
I
1070
     2
1040
0.4
1002
{
1002
}
1002
}
1000
AngleIncr
1070
     2
1040
45.0
1002
{
1002
}
1000
Filter
1070
     0
1002
{
1000
HATCH
1070
    11
1002
{
1000
EntityType
1070
     4
1000
LINE
1002
{
1002
}
1000
Layer
1070
     4
1000
8,8N,*-8,*-8N
1002
{
1002
}
1000
Linetype
1070
     4
1000
*
1002
{
1002
}
1000
Color
1070
     4
1000
*
1002
{
1002
}
1002
}
1000
SYMBOLS
1070
    11
1002
{
1000
EntityType
1070
     4
1000
*
1002
{
1002
}
1000
Layer
1070
     4
1000
[5-6],[5-6]N,*-[5-6],*-[5-6]N
1002
{
1002
}
1000
Linetype
1070
     4
1000
*
1002
{
1002
}
1000
Color
1070
     4
1000
*
1002
{
1002
}
1002
}
1000
FEM
1070
    11
1002
{
1000
EntityType
1070
     4
1000
*
1002
{
1002
}
1000
Layer
1070
     4
1000
4A,4AN,*-4A,*-4AN
1002
{
1002
}
1000
Linetype
1070
     4
1000
*
1002
{
1002
}
1000
Color
1070
     4
1000
*
1002
{
1002
}
1002
}
1002
}
1000
IconSize
1070
     2
1040
1.0
1002
{
1002
}
1000
SnapColor
1070
     1
1070
     3
1002
{
1002
}
  0
APPID
  5
F1F
330
9
100
AcDbSymbolTableRecord
100
AcDbRegAppTableRecord
  2
GENIUS_GENCFG4_13
 70
     0
1001
GENIUS_GENCFG_13
1071
886403541
1000
F1F
1000
GEN
1070
     9
1000
GenCfgObject
1000
GenCfgShort
1000
GenCfgReal
1000
GenCfgBool
1000
GenCfgString
1000
GenCfgDim
1000
GenCfgAttrInf
1000
GenCfgLaySection
1000
GenCfgLType
1000
Balloon
1070
     0
1002
{
1000
GenIF
1070
     1
1070
     0
1002
{
1002
}
1000
GenPosInc
1070
     1
1070
    10
1002
{
1002
}
1000
GenPosBlk
1070
     1
1070
     8
1002
{
1002
}
1000
GenPosVar
1070
     1
1070
     2
1002
{
1002
}
1000
GenZiCir
1070
     2
1040
1.5
1002
{
1002
}
1000
MaxCharForCenteredText
1070
     1
1070
    30
1002
{
1002
}
1000
Snap
1070
     0
1002
{
1000
ActivationRadius
1070
     2
1040
1.0
1002
{
1002
}
1000
M
1070
     0
1002
{
1000
SnapStepX
1070
     2
1040
20.0
1002
{
1002
}
1000
SnapStepY
1070
     2
1040
10.0
1002
{
1002
}
1002
}
1000
I
1070
     0
1002
{
1000
SnapStepX
1070
     2
1040
1.0
1002
{
1002
}
1000
SnapStepY
1070
     2
1040
0.5
1002
{
1002
}
1002
}
1002
}
1002
}
1000
Centerline
1070
     0
1002
{
1000
ScaleNot
1070
     3
1070
     1
1002
{
1002
}
1000
M
1070
     0
1002
{
1000
GenCenAng
1070
     4
1000
45|90|135
1002
{
1002
}
1000
GenCenDia
1070
     2
1040
10.0
1002
{
1002
}
1000
GenCenDias
1070
     4
1000
10|20|30
1002
{
1002
}
1000
GenCenDist
1070
     2
1040
3.0
1002
{
1002
}
1000
GenCenLen
1070
     2
1040
10.0
1002
{
1002
}
1000
GenCenOff
1070
     2
1040
10.0
1002
{
1002
}
1002
}
1000
I
1070
     0
1002
{
1000
GenCenAng
1070
     4
1000
45|90|135
1002
{
1002
}
1000
GenCenDia
1070
     2
1040
0.5
1002
{
1002
}
1000
GenCenDias
1070
     4
1000
0.5|1.0|1.5
1002
{
1002
}
1000
GenCenDist
1070
     2
1040
0.125
1002
{
1002
}
1000
GenCenLen
1070
     2
1040
0.5
1002
{
1002
}
1000
GenCenOff
1070
     2
1040
0.5
1002
{
1002
}
1002
}
1002
}
1000
CLine
1070
     0
1002
{
1000
CAngArray
1070
     4
1000
30|45|60
1002
{
1002
}
1000
Typ
1070
     4
1000
XLINE
1002
{
1002
}
1000
M
1070
     0
1002
{
1000
CLinArray
1070
     4
1000
60
1002
{
1002
}
1002
}
1000
I
1070
     0
1002
{
1000
CLinArray
1070
     4
1000
0.125|0.25|0.5
1002
{
1002
}
1002
}
1002
}
1000
Constraints
1070
     0
1002
{
1000
Color
1070
     0
1002
{
1000
Active_Frame
1070
     1
1070
     2
1002
{
1002
}
1000
Inactive_Frame
1070
     1
1070
     8
1002
{
1002
}
1002
}
1000
Debug
1070
     0
1002
{
1002
}
1000
Editor
1070
     0
1002
{
1002
}
1000
Frame
1070
     0
1002
{
1002
}
1000
Sys
1070
     0
1002
{
1002
}
1002
}
1000
Detail
1070
     0
1002
{
1002
}
1000
Dimension
1070
     5
1002
{
1000
DIMALT
1070
     1
1070
     0
1002
{
1002
}
1000
DIMALTD
1070
     1
1070
     2
1002
{
1002
}
1000
DIMALTTD
1070
     1
1070
     4
1002
{
1002
}
1000
DIMALTTZ
1070
     1
1070
     0
1002
{
1002
}
1000
DIMALTU
1070
     1
1070
     2
1002
{
1002
}
1000
DIMALTZ
1070
     1
1070
     0
1002
{
1002
}
1000
DIMAPOST
1070
     4
1000

1002
{
1002
}
1000
DIMAUNIT
1070
     1
1070
     0
1002
{
1002
}
1000
DIMBLK
1070
     4
1000

1002
{
1002
}
1000
DIMBLK1
1070
     4
1000

1002
{
1002
}
1000
DIMBLK2
1070
     4
1000

1002
{
1002
}
1000
DIMDLE
1070
     2
1040
0.0
1002
{
1002
}
1000
DIMFIT
1070
     1
1070
     3
1002
{
1002
}
1000
DIMJUST
1070
     1
1070
     0
1002
{
1002
}
1000
DIMLFAC
1070
     2
1040
1.0
1002
{
1002
}
1000
DIMLIM
1070
     1
1070
     0
1002
{
1002
}
1000
DIMPOST
1070
     4
1000
<>
1002
{
1002
}
1000
DIMRND
1070
     2
1040
0.0
1002
{
1002
}
1000
DIMSAH
1070
     1
1070
     0
1002
{
1002
}
1000
DIMSCALE
1070
     2
1040
1.0
1002
{
1002
}
1000
DIMSD1
1070
     1
1070
     0
1002
{
1002
}
1000
DIMSD2
1070
     1
1070
     0
1002
{
1002
}
1000
DIMSE1
1070
     1
1070
     0
1002
{
1002
}
1000
DIMSE2
1070
     1
1070
     0
1002
{
1002
}
1000
DIMSOXD
1070
     1
1070
     0
1002
{
1002
}
1000
DIMTAD
1070
     1
1070
     0
1002
{
1002
}
1000
DIMTFAC
1070
     2
1040
0.71
1002
{
1002
}
1000
DIMTIH
1070
     1
1070
     0
1002
{
1002
}
1000
DIMTIX
1070
     1
1070
     0
1002
{
1002
}
1000
DIMTM
1070
     2
1040
0.1
1002
{
1002
}
1000
DIMTOFL
1070
     1
1070
     0
1002
{
1002
}
1000
DIMTOH
1070
     1
1070
     0
1002
{
1002
}
1000
DIMTOL
1070
     1
1070
     0
1002
{
1002
}
1000
DIMTOLJ
1070
     1
1070
     1
1002
{
1002
}
1000
DIMTP
1070
     2
1040
0.1
1002
{
1002
}
1000
DIMTSZ
1070
     2
1040
0.0
1002
{
1002
}
1000
DIMTVP
1070
     2
1040
0.0
1002
{
1002
}
1000
DIMTXSTY
1070
     4
1000
STANDARD
1002
{
1002
}
1000
DIMTZIN
1070
     1
1070
     0
1002
{
1002
}
1000
DIMUNIT
1070
     1
1070
     2
1002
{
1002
}
1000
DIMUPT
1070
     1
1070
     0
1002
{
1002
}
1000
M
1070
     0
1002
{
1000
DIMALTF
1070
     2
1040
0.0393701
1002
{
1002
}
1000
DIMASZ
1070
     2
1040
2.5
1002
{
1002
}
1000
DIMCEN
1070
     2
1040
0.0
1002
{
1002
}
1000
DIMDEC
1070
     1
1070
     2
1002
{
1002
}
1000
DIMDLI
1070
     2
1040
7.0
1002
{
1002
}
1000
DIMEXE
1070
     2
1040
1.0
1002
{
1002
}
1000
DIMEXO
1070
     2
1040
1.0
1002
{
1002
}
1000
DIMGAP
1070
     2
1040
0.6
1002
{
1002
}
1000
DIMTDEC
1070
     1
1070
     3
1002
{
1002
}
1000
DIMTXT
1070
     2
1040
3.5
1002
{
1002
}
1000
DIMZIN
1070
     1
1070
     8
1002
{
1002
}
1002
}
1000
I
1070
     0
1002
{
1000
DIMALTF
1070
     2
1040
25.4
1002
{
1002
}
1000
DIMASZ
1070
     2
1040
0.1
1002
{
1002
}
1000
DIMCEN
1070
     2
1040
0.0
1002
{
1002
}
1000
DIMDEC
1070
     1
1070
     4
1002
{
1002
}
1000
DIMDLI
1070
     2
1040
0.5
1002
{
1002
}
1000
DIMEXE
1070
     2
1040
0.1
1002
{
1002
}
1000
DIMEXO
1070
     2
1040
0.05
1002
{
1002
}
1000
DIMGAP
1070
     2
1040
0.06
1002
{
1002
}
1000
DIMTDEC
1070
     1
1070
     4
1002
{
1002
}
1000
DIMTXT
1070
     2
1040
0.12
1002
{
1002
}
1000
DIMZIN
1070
     1
1070
     7
1002
{
1002
}
1002
}
1000
GEN-ISO
1070
     5
1002
{
1000
NAME
1070
     4
1000
GEN-ISO
1002
{
1002
}
1000
DIMTAD
1070
     1
1070
     1
1002
{
1002
}
1000
DIMTOLJ
1070
     1
1070
     0
1002
{
1002
}
1000
DIMTOFL
1070
     1
1070
     1
1002
{
1002
}
1000
M
1070
     0
1002
{
1002
}
1000
I
1070
     0
1002
{
1002
}
1002
}
1000
GEN-ISO-POS
1070
     5
1002
{
1000
NAME
1070
     4
1000
GEN-ISO-POS
1002
{
1002
}
1000
DIMTOLJ
1070
     1
1070
     0
1002
{
1002
}
1000
M
1070
     0
1002
{
1000
DIMASZ
1070
     2
1040
2.5
1002
{
1002
}
1000
DIMGAP
1070
     2
1040
1.5
1002
{
1002
}
1000
DIMTXT
1070
     2
1040
5.0
1002
{
1002
}
1002
}
1000
I
1070
     0
1002
{
1000
DIMASZ
1070
     2
1040
0.1
1002
{
1002
}
1000
DIMGAP
1070
     2
1040
0.06
1002
{
1002
}
1000
DIMTXT
1070
     2
1040
0.2
1002
{
1002
}
1002
}
1000
DIMSCALE
1070
     2
1040
1.0
1002
{
1002
}
1002
}
1000
GEN-ISO-CIR
1070
     5
1002
{
1000
NAME
1070
     4
1000
GEN-ISO$3
1002
{
1002
}
1000
DIMFIT
1070
     1
1070
     0
1002
{
1002
}
1000
DIMTAD
1070
     1
1070
     1
1002
{
1002
}
1000
DIMTIH
1070
     1
1070
     0
1002
{
1002
}
1000
DIMTIX
1070
     1
1070
     0
1002
{
1002
}
1000
DIMTOH
1070
     1
1070
     1
1002
{
1002
}
1000
DIMTOLJ
1070
     1
1070
     0
1002
{
1002
}
1000
DIMTOFL
1070
     1
1070
     0
1002
{
1002
}
1000
DIMUPT
1070
     1
1070
     1
1002
{
1002
}
1000
M
1070
     0
1002
{
1002
}
1000
I
1070
     0
1002
{
1002
}
1002
}
1000
GEN-ISO-RAD
1070
     5
1002
{
1000
NAME
1070
     4
1000
GEN-ISO$4
1002
{
1002
}
1000
DIMFIT
1070
     1
1070
     0
1002
{
1002
}
1000
DIMTAD
1070
     1
1070
     1
1002
{
1002
}
1000
DIMTIH
1070
     1
1070
     0
1002
{
1002
}
1000
DIMTIX
1070
     1
1070
     0
1002
{
1002
}
1000
DIMTOH
1070
     1
1070
     1
1002
{
1002
}
1000
DIMTOLJ
1070
     1
1070
     0
1002
{
1002
}
1000
DIMTOFL
1070
     1
1070
     0
1002
{
1002
}
1000
DIMUPT
1070
     1
1070
     1
1002
{
1002
}
1000
M
1070
     0
1002
{
1002
}
1000
I
1070
     0
1002
{
1002
}
1002
}
1000
GEN-ISO-ORD
1070
     5
1002
{
1000
NAME
1070
     4
1000
GEN-ISO$6
1002
{
1002
}
1000
DIMTOLJ
1070
     1
1070
     0
1002
{
1002
}
1000
M
1070
     0
1002
{
1002
}
1000
I
1070
     0
1002
{
1002
}
1002
}
1000
GEN-ISO-AXE-F
1070
     5
1002
{
1000
NAME
1070
     4
1000
GEN-ISO-AXE-F
1002
{
1002
}
1000
DIMSE1
1070
     1
1070
     1
1002
{
1002
}
1000
DIMSE2
1070
     1
1070
     1
1002
{
1002
}
1000
DIMTAD
1070
     1
1070
     1
1002
{
1002
}
1000
DIMTOLJ
1070
     1
1070
     0
1002
{
1002
}
1000
DIMTOFL
1070
     1
1070
     1
1002
{
1002
}
1000
M
1070
     0
1002
{
1002
}
1000
I
1070
     0
1002
{
1002
}
1002
}
1000
GEN-ISO-AXE-H
1070
     5
1002
{
1000
DIMBLK1
1070
     4
1000
GENAXEH
1002
{
1002
}
1000
DIMLFAC
1070
     2
1040
2.0
1002
{
1002
}
1000
DIMSAH
1070
     1
1070
     1
1002
{
1002
}
1000
DIMSE1
1070
     1
1070
     1
1002
{
1002
}
1000
DIMSE2
1070
     1
1070
     1
1002
{
1002
}
1000
DIMTAD
1070
     1
1070
     1
1002
{
1002
}
1000
DIMTOLJ
1070
     1
1070
     0
1002
{
1002
}
1000
DIMTOFL
1070
     1
1070
     1
1002
{
1002
}
1000
M
1070
     0
1002
{
1002
}
1000
I
1070
     0
1002
{
1002
}
1002
}
1000
GEN-ANSI
1070
     5
1002
{
1000
NAME
1070
     4
1000
GEN-ANSI
1002
{
1002
}
1000
DIMTIH
1070
     1
1070
     1
1002
{
1002
}
1000
DIMTOH
1070
     1
1070
     1
1002
{
1002
}
1000
DIMTAD
1070
     1
1070
     0
1002
{
1002
}
1000
DIMTOLJ
1070
     1
1070
     1
1002
{
1002
}
1000
M
1070
     0
1002
{
1002
}
1000
I
1070
     0
1002
{
1002
}
1002
}
1000
GEN-ANSI-POS
1070
     5
1002
{
1000
NAME
1070
     4
1000
GEN-ANSI-POS
1002
{
1002
}
1000
DIMTOLJ
1070
     1
1070
     1
1002
{
1002
}
1000
M
1070
     0
1002
{
1000
DIMASZ
1070
     2
1040
2.5
1002
{
1002
}
1000
DIMGAP
1070
     2
1040
1.5
1002
{
1002
}
1000
DIMTXT
1070
     2
1040
5.0
1002
{
1002
}
1002
}
1000
I
1070
     0
1002
{
1000
DIMASZ
1070
     2
1040
0.1
1002
{
1002
}
1000
DIMGAP
1070
     2
1040
0.06
1002
{
1002
}
1000
DIMTXT
1070
     2
1040
0.2
1002
{
1002
}
1002
}
1002
}
1000
GEN-ANSI-CIR
1070
     5
1002
{
1000
NAME
1070
     4
1000
GEN-ANSI$3
1002
{
1002
}
1000
DIMFIT
1070
     1
1070
     0
1002
{
1002
}
1000
DIMTAD
1070
     1
1070
     0
1002
{
1002
}
1000
DIMTIH
1070
     1
1070
     1
1002
{
1002
}
1000
DIMTIX
1070
     1
1070
     0
1002
{
1002
}
1000
DIMTOFL
1070
     1
1070
     0
1002
{
1002
}
1000
DIMTOH
1070
     1
1070
     1
1002
{
1002
}
1000
DIMTOLJ
1070
     1
1070
     1
1002
{
1002
}
1000
DIMUPT
1070
     1
1070
     1
1002
{
1002
}
1000
M
1070
     0
1002
{
1002
}
1000
I
1070
     0
1002
{
1002
}
1002
}
1000
GEN-ANSI-RAD
1070
     5
1002
{
1000
NAME
1070
     4
1000
GEN-ANSI$4
1002
{
1002
}
1000
DIMFIT
1070
     1
1070
     0
1002
{
1002
}
1000
DIMTAD
1070
     1
1070
     0
1002
{
1002
}
1000
DIMTIH
1070
     1
1070
     1
1002
{
1002
}
1000
DIMTIX
1070
     1
1070
     0
1002
{
1002
}
1000
DIMTOFL
1070
     1
1070
     0
1002
{
1002
}
1000
DIMTOH
1070
     1
1070
     1
1002
{
1002
}
1000
DIMTOLJ
1070
     1
1070
     1
1002
{
1002
}
1000
DIMUPT
1070
     1
1070
     1
1002
{
1002
}
1000
M
1070
     0
1002
{
1002
}
1000
I
1070
     0
1002
{
1002
}
1002
}
1000
GEN-ANSI-ORD
1070
     5
1002
{
1000
NAME
1070
     4
1000
GEN-ANSI$6
1002
{
1002
}
1000
DIMTAD
1070
     1
1070
     0
1002
{
1002
}
1000
DIMTIH
1070
     1
1070
     1
1002
{
1002
}
1000
DIMTOH
1070
     1
1070
     1
1002
{
1002
}
1000
DIMTOLJ
1070
     1
1070
     1
1002
{
1002
}
1000
M
1070
     0
1002
{
1002
}
1000
I
1070
     0
1002
{
1002
}
1002
}
1000
GEN-ANSI-AXE-F
1070
     5
1002
{
1000
NAME
1070
     4
1000
GEN-ANSI-AXE-F
1002
{
1002
}
1000
DIMBLK1
1070
     4
1000
GENAXEH
1002
{
1002
}
1000
DIMSAH
1070
     1
1070
     1
1002
{
1002
}
1000
DIMSE1
1070
     1
1070
     1
1002
{
1002
}
1000
DIMSE2
1070
     1
1070
     1
1002
{
1002
}
1000
DIMTAD
1070
     1
1070
     0
1002
{
1002
}
1000
DIMTIH
1070
     1
1070
     1
1002
{
1002
}
1000
DIMTOH
1070
     1
1070
     1
1002
{
1002
}
1000
DIMTOLJ
1070
     1
1070
     1
1002
{
1002
}
1000
M
1070
     0
1002
{
1002
}
1000
I
1070
     0
1002
{
1002
}
1002
}
1000
GEN-ANSI-AXE-H
1070
     5
1002
{
1000
NAME
1070
     4
1000
GEN-ANSI-AXE-H
1002
{
1002
}
1000
DIMBLK1
1070
     4
1000
GENAXEH
1002
{
1002
}
1000
DIMLFAC
1070
     2
1040
2.0
1002
{
1002
}
1000
DIMSAH
1070
     1
1070
     1
1002
{
1002
}
1000
DIMSE1
1070
     1
1070
     1
1002
{
1002
}
1000
DIMSE2
1070
     1
1070
     1
1002
{
1002
}
1000
DIMTAD
1070
     1
1070
     0
1002
{
1002
}
1000
DIMTOFL
1070
     1
1070
     1
1002
{
1002
}
1000
DIMTOLJ
1070
     1
1070
     1
1002
{
1002
}
1000
M
1070
     0
1002
{
1002
}
1000
I
1070
     0
1002
{
1002
}
1002
}
1000
DIMZIN
1070
     1
1070
     8
1002
{
1002
}
1002
}
1000
DimSet
1070
     0
1002
{
1000
ChainSum
1070
     3
1070
     0
1002
{
1002
}
1000
DimDclTyp0
1070
     4
1000
dim23
1002
{
1002
}
1000
HorBra
1070
     3
1070
     0
1002
{
1002
}
1000
StrDia
1070
     4
1000
%%c<>
1002
{
1002
}
1000
StrRad
1070
     4
1000
R<>
1002
{
1002
}
1000
TextMinus
1070
     4
1000
<>
1002
{
1002
}
1000
TextPlus
1070
     4
1000
<>
1002
{
1002
}
1000
M
1070
     0
1002
{
1000
DimdliFirst
1070
     2
1040
10.0
1002
{
1002
}
1000
PointMakeDist
1070
     2
1040
10.0
1002
{
1002
}
1002
}
1000
I
1070
     0
1002
{
1000
DimdliFirst
1070
     2
1040
0.5
1002
{
1002
}
1000
PointMakeDist
1070
     2
1040
0.5
1002
{
1002
}
1002
}
1002
}
1000
Drawing
1070
     0
1002
{
1000
ChamferDimMode
1070
     1
1070
     2
1002
{
1002
}
1000
Gen_Fiso
1070
    -3
1040
1.0
1002
{
1002
}
1000
GenDimStil
1070
     4
1000
ISO
1002
{
1002
}
1000
GenDwgUScale
1070
     2
1040
1.0
1002
{
1002
}
1000
GenInch
1070
     4
1000
M
1002
{
1002
}
1000
GenPlotScale
1070
     4
1000
1:1
1002
{
1002
}
1000
Revisi
1070
     4
1000
0
1002
{
1002
}
1000
Version
1070
    -5
1000
13.1/May  9 1996
1002
{
1002
}
1000
Platform
1070
    -5
1000
WINNT
1002
{
1002
}
1002
}
1000
DwgVar
1070
     0
1002
{
1000
M
1070
     0
1002
{
1002
}
1000
I
1070
     0
1002
{
1002
}
1002
}
1000
Hatch
1070
     0
1002
{
1000
GenHtcFlag
1070
     3
1070
     0
1002
{
1002
}
1002
}
1000
Info_Pos
1070
     0
1002
{
1000
DescrText
1070
     4
1000
5,6,7,8
1002
{
1002
}
1000
Attrib
1070
     0
1002
{
1000
0
1070
     6
1002
{
1000
Prompt
1070
     4
1000
(genmsg gendwg 103)
1002
{
1002
}
1000
Value
1070
     4
1000

1002
{
1002
}
1000
EditFlag
1070
     1
1070
     0
1002
{
1002
}
1002
}
1000
1
1070
     6
1002
{
1000
Prompt
1070
     4
1000
(genmsg gendwg 31)
1002
{
1002
}
1000
Value
1070
     4
1000
1
1002
{
1002
}
1000
EditFlag
1070
     1
1070
     1
1002
{
1002
}
1002
}
1000
2
1070
     6
1002
{
1000
Prompt
1070
     4
1000
(genmsg gendwg 32)
1002
{
1002
}
1000
Value
1070
     4
1000
1
1002
{
1002
}
1000
EditFlag
1070
     1
1070
     1
1002
{
1002
}
1002
}
1000
3
1070
     6
1002
{
1000
Prompt
1070
     4
1000
(genmsg gendwg 33)
1002
{
1002
}
1000
Value
1070
     4
1000

1002
{
1002
}
1000
EditFlag
1070
     1
1070
     1
1002
{
1002
}
1002
}
1000
4
1070
     6
1002
{
1000
Prompt
1070
     4
1000
(genmsg gendwg 34)
1002
{
1002
}
1000
Value
1070
     4
1000

1002
{
1002
}
1000
EditFlag
1070
     1
1070
     1
1002
{
1002
}
1002
}
1000
5
1070
     6
1002
{
1000
Prompt
1070
     4
1000
(genmsg gendwg 35)
1002
{
1002
}
1000
Value
1070
     4
1000

1002
{
1002
}
1000
EditFlag
1070
     1
1070
     1
1002
{
1002
}
1002
}
1000
6
1070
     6
1002
{
1000
Prompt
1070
     4
1000
(genmsg gendwg 36)
1002
{
1002
}
1000
Value
1070
     4
1000

1002
{
1002
}
1000
EditFlag
1070
     1
1070
     1
1002
{
1002
}
1002
}
1000
7
1070
     6
1002
{
1000
Prompt
1070
     4
1000
(genmsg gendwg 37)
1002
{
1002
}
1000
Value
1070
     4
1000

1002
{
1002
}
1000
EditFlag
1070
     1
1070
     1
1002
{
1002
}
1002
}
1000
8
1070
     6
1002
{
1000
Prompt
1070
     4
1000
(genmsg gendwg 38)
1002
{
1002
}
1000
Value
1070
     4
1000

1002
{
1002
}
1000
EditFlag
1070
     1
1070
     1
1002
{
1002
}
1002
}
1000
9
1070
     6
1002
{
1000
Prompt
1070
     4
1000
(genmsg gendwg 39)
1002
{
1002
}
1000
Value
1070
     4
1000

1002
{
1002
}
1000
EditFlag
1070
     1
1070
     1
1002
{
1002
}
1002
}
1000
10
1070
     6
1002
{
1000
Prompt
1070
     4
1000
(genmsg gendwg 40)
1002
{
1002
}
1000
Value
1070
     4
1000

1002
{
1002
}
1000
EditFlag
1070
     1
1070
     1
1002
{
1002
}
1002
}
1000
11
1070
     6
1002
{
1000
Prompt
1070
     4
1000
(genmsg gendwg 41)
1002
{
1002
}
1000
Value
1070
     4
1000

1002
{
1002
}
1000
EditFlag
1070
     1
1070
     1
1002
{
1002
}
1002
}
1000
12
1070
     6
1002
{
1000
Prompt
1070
     4
1000
(genmsg gendwg 42)
1002
{
1002
}
1000
Value
1070
     4
1000

1002
{
1002
}
1000
EditFlag
1070
     1
1070
     1
1002
{
1002
}
1002
}
1000
13
1070
     6
1002
{
1000
Prompt
1070
     4
1000
(genmsg gendwg 43)
1002
{
1002
}
1000
Value
1070
     4
1000

1002
{
1002
}
1000
EditFlag
1070
     1
1070
     1
1002
{
1002
}
1002
}
1000
14
1070
     6
1002
{
1000
Prompt
1070
     4
1000
(genmsg gendwg 44)
1002
{
1002
}
1000
Value
1070
     4
1000

1002
{
1002
}
1000
EditFlag
1070
     1
1070
     1
1002
{
1002
}
1002
}
1000
15
1070
     6
1002
{
1000
Prompt
1070
     4
1000
(genmsg gendwg 45)
1002
{
1002
}
1000
Value
1070
     4
1000

1002
{
1002
}
1000
EditFlag
1070
     1
1070
     1
1002
{
1002
}
1002
}
1000
16
1070
     6
1002
{
1000
Prompt
1070
     4
1000
(genmsg gendwg 46)
1002
{
1002
}
1000
Value
1070
     4
1000

1002
{
1002
}
1000
EditFlag
1070
     1
1070
     1
1002
{
1002
}
1002
}
1000
17
1070
     6
1002
{
1000
Prompt
1070
     4
1000
(genmsg gendwg 47)
1002
{
1002
}
1000
Value
1070
     4
1000

1002
{
1002
}
1000
EditFlag
1070
     1
1070
     1
1002
{
1002
}
1002
}
1000
18
1070
     6
1002
{
1000
Prompt
1070
     4
1000
(genmsg gendwg 48)
1002
{
1002
}
1000
Value
1070
     4
1000

1002
{
1002
}
1000
EditFlag
1070
     1
1070
     1
1002
{
1002
}
1002
}
1000
19
1070
     6
1002
{
1000
Prompt
1070
     4
1000
(genmsg gendwg 99)
1002
{
1002
}
1000
Value
1070
     4
1000

1002
{
1002
}
1000
EditFlag
1070
     1
1070
     1
1002
{
1002
}
1002
}
1000
20
1070
     6
1002
{
1000
Prompt
1070
     4
1000
(genmsg gendwg 100)
1002
{
1002
}
1000
Value
1070
     4
1000

1002
{
1002
}
1000
EditFlag
1070
     1
1070
     1
1002
{
1002
}
1002
}
1000
21
1070
     6
1002
{
1000
Prompt
1070
     4
1000
(genmsg gendwg 101)
1002
{
1002
}
1000
Value
1070
     4
1000

1002
{
1002
}
1000
EditFlag
1070
     1
1070
     1
1002
{
1002
}
1002
}
1000
22
1070
     6
1002
{
1000
Prompt
1070
     4
1000
(genmsg gendwg 102)
1002
{
1002
}
1000
Value
1070
     4
1000

1002
{
1002
}
1000
EditFlag
1070
     1
1070
     1
1002
{
1002
}
1002
}
1000
23
1070
     6
1002
{
1000
Prompt
1070
     4
1000
(genmsg gendwg 30)
1002
{
1002
}
1000
Value
1070
     4
1000

1002
{
1002
}
1000
EditFlag
1070
     1
1070
     1
1002
{
1002
}
1002
}
1000
24
1070
     6
1002
{
1000
Prompt
1070
     4
1000
(genmsg gendwg 104)
1002
{
1002
}
1000
Value
1070
     4
1000

1002
{
1002
}
1000
EditFlag
1070
     1
1070
     1
1002
{
1002
}
1002
}
1002
}
1000
Xlate
1070
     0
1002
{
1000
>
1002
}
1002
}
1000
Layer
1070
     7
1002
{
1000
Defs
1070
     0
1002
{
1000
>
1002
}
1000
EntSort
1070
     0
1002
{
1000
>
1002
}
1000
Match
1070
     0
1002
{
1002
}
1000
Settings
1070
     0
1002
{
1000
FocGrNC
1070
     3
1070
     0
1002
{
1002
}
1000
FocGrLo
1070
     3
1070
     0
1002
{
1002
}
1000
FocLoNC
1070
     3
1070
     0
1002
{
1002
}
1000
FocusCol
1070
     1
1070
   253
1002
{
1002
}
1000
GenStdLG
1070
     4
1000

1002
{
1002
}
1000
LayMatch
1070
     3
1070
     0
1002
{
1002
}
1000
LgOff
1070
     3
1070
     0
1002
{
1002
}
1000
CurLG
1070
    -5
1000
MSR1
1002
{
1002
}
1002
}
1002
}
1000
LType
1070
     0
1002
{
1000
GEN3
1070
     8
1000
genius.lin
1002
{
1002
}
1000
GEN7
1070
     8
1000
genius.lin
1002
{
1002
}
1000
GEN4A
1070
     8
1000
genius.lin
1002
{
1002
}
1000
GEN3A
1070
     8
1000
genius.lin
1002
{
1002
}
1000
GEN7A
1070
     8
1000
genius.lin
1002
{
1002
}
1000
GENZIGZAG
1070
     8
1000
genius.lin
1002
{
1002
}
1002
}
1000
Objecter
1070
     0
1002
{
1000
CreateGroups
1070
     3
1070
     0
1002
{
1002
}
1000
LaySwitch
1070
     3
1070
     1
1002
{
1002
}
1000
LastObj
1070
    -5
1000
0
1002
{
1002
}
1002
}
1000
OSWiz
1070
     0
1002
{
1000
>
1002
}
1000
PaList
1070
     0
1002
{
1000
AutoUpdatePartList
1070
     3
1070
     0
1002
{
1002
}
1000
ReadInfoPoint
1070
     3
1070
     0
1002
{
1002
}
1000
ReadPosNr
1070
     3
1070
     1
1002
{
1002
}
1000
RevStr
1070
     4
1000
0
1002
{
1002
}
1000
rebuildpending
1070
    -4
1070
     1
1002
{
1002
}
1000
rebuildpendingtime
1070
    -5
1000
886143504
1002
{
1002
}
1002
}
1000
Paper
1070
     0
1002
{
1000
Layer
1070
    -5
1000
MSR1-5,MSR1-4A,INFO,MSR1-0N,MSR1-8,MSR1-6,MSR1-7,MSR1-5,MSR1-3,MSR1-0,MSR1-4
1002
{
1002
}
1002
}
1000
PartDB
1070
     0
1002
{
1000
GenDbOwner
1070
     4
1000

1002
{
1002
}
1002
}
1000
System
1070
     0
1002
{
1000
Menu
1070
     4
1000
GEV
1002
{
1002
}
1002
}
1000
Title
1070
     0
1002
{
1000
MakeView
1070
     1
1070
     2
1002
{
1002
}
1002
}
  0
APPID
  5
F20
330
9
100
AcDbSymbolTableRecord
100
AcDbRegAppTableRecord
  2
GENIUS_GEVCFG0_13
 70
     0
1001
GENIUS_GENCFG_13
1071
881171123
1000
F20
1000
GEV
1070
     1
1000
GenCfgObject
1000
System
1070
     0
1002
{
1002
}
1000
VED
1070
     0
1002
{
1002
}
  0
APPID
  5
F26
330
9
100
AcDbSymbolTableRecord
100
AcDbRegAppTableRecord
  2
GENIUS_GENOENT_13
 70
     0
  0
APPID
  5
FF6
330
9
100
AcDbSymbolTableRecord
100
AcDbRegAppTableRecord
  2
GENIUS_GENODEF_13
 70
     0
  0
APPID
  5
FF7
330
9
100
AcDbSymbolTableRecord
100
AcDbRegAppTableRecord
  2
GENIUS_GENOBJ-N-HTC_13
 70
     0
  0
APPID
  5
FF8
330
9
100
AcDbSymbolTableRecord
100
AcDbRegAppTableRecord
  2
GENIUS_GENHATCH_13
 70
     0
  0
APPID
  5
1069
330
9
100
AcDbSymbolTableRecord
100
AcDbRegAppTableRecord
  2
GENIUS_GENINF13_13
 70
     0
  0
APPID
  5
106A
330
9
100
AcDbSymbolTableRecord
100
AcDbRegAppTableRecord
  2
GENIUS_GENOBJ-N-INFOPT_13
 70
     0
  0
APPID
  5
106B
330
9
100
AcDbSymbolTableRecord
100
AcDbRegAppTableRecord
  2
GENIUS_GENOBJ_13
 70
     0
  0
APPID
  5
106C
330
9
100
AcDbSymbolTableRecord
100
AcDbRegAppTableRecord
  2
GENIUS_GENOLIS_13
 70
     0
  0
APPID
  5
106D
330
9
100
AcDbSymbolTableRecord
100
AcDbRegAppTableRecord
  2
GENIUS_GENOREF_13
 70
     0
  0
APPID
  5
106E
330
9
100
AcDbSymbolTableRecord
100
AcDbRegAppTableRecord
  2
GENIUS_GENOBJ-N-RSSYM_13
 70
     0
  0
APPID
  5
106F
330
9
100
AcDbSymbolTableRecord
100
AcDbRegAppTableRecord
  2
GENIUS_GENSYMENT_13
 70
     0
  0
APPID
  5
1070
330
9
100
AcDbSymbolTableRecord
100
AcDbRegAppTableRecord
  2
GENIUS_GENSCSYM_13
 70
     0
  0
APPID
  5
10A6
330
9
100
AcDbSymbolTableRecord
100
AcDbRegAppTableRecord
  2
GEV_VCCNULL_SWITCH_OFF
 70
     0
  0
APPID
  5
10A7
330
9
100
AcDbSymbolTableRecord
100
AcDbRegAppTableRecord
  2
GENIUS_GENDTOL_13
 70
     0
  0
APPID
  5
16AB
330
9
100
AcDbSymbolTableRecord
100
AcDbRegAppTableRecord
  2
GENIUS_GEFCFG0_13
 70
     0
1001
GENIUS_GENCFG_13
1071
886403393
1000
16AB
1000
GEF
1070
     5
1000
GenCfgObject
1000
GenCfgString
1000
GenCfgReal
1000
GenCfgShort
1000
GenCfgBool
1000
System
1070
     0
1002
{
1002
}
1000
Prese
1070
     0
1002
{
1000
Funk
1070
     1
1000

1002
{
1002
}
1000
FunkDef
1070
     1
1000

1002
{
1002
}
1000
GefIso
1070
     1
1000
DIN
1002
{
1002
}
1002
}
1000
FEM
1070
     0
1002
{
1000
LayGroup
1070
     1
1000
FEM
1002
{
1002
}
1000
IncrCoef
1070
     2
1040
0.0
1002
{
1002
}
1002
}
1000
Shaft
1070
     0
1002
{
1000
Interrupt
1070
     3
1070
     0
1002
{
1002
}
1002
}
1000
PartDb
1070
     0
1002
{
1000
PartCreate
1070
     0
1002
{
1002
}
1002
}
1000
Symbol
1070
     0
1002
{
1000
WeldStyle
1070
     1
1000
ISO
1002
{
1002
}
1000
WeldSize
1070
     2
1040
1.0
1002
{
1002
}
1000
WeldFlag
1070
     4
1070
     1
1002
{
1002
}
1000
WeldOffset
1070
     4
1070
     1
1002
{
1002
}
1000
TolCType
1070
     1
1000
ISO
1002
{
1002
}
1000
TolCSize
1070
     2
1040
1.0
1002
{
1002
}
1000
STextureSize
1070
     2
1040
1.0
1002
{
1002
}
1000
SurfaceType
1070
     1
1000

1002
{
1002
}
1000
M
1070
     0
1002
{
1000
WeldWidth
1070
     2
1040
3.0
1002
{
1002
}
1002
}
1000
I
1070
     0
1002
{
1000
WeldWidth
1070
     2
1040
0.125
1002
{
1002
}
1002
}
1000
weldwidth
1070
     2
1040
5.0
1002
{
1002
}
1002
}
  0
APPID
  5
1912
330
9
100
AcDbSymbolTableRecord
100
AcDbRegAppTableRecord
  2
GENIUS_GENOBJ-N-RSBK_13
 70
     0
  0
APPID
  5
1913
330
9
100
AcDbSymbolTableRecord
100
AcDbRegAppTableRecord
  2
GENIUS_GENOBJ-N-LIB_13
 70
     0
  0
APPID
  5
1914
330
9
100
AcDbSymbolTableRecord
100
AcDbRegAppTableRecord
  2
GENIUS_GENSCALE_13
 70
     0
  0
APPID
  5
1BB5
330
9
100
AcDbSymbolTableRecord
100
AcDbRegAppTableRecord
  2
ACAD_MLEADERVER
 70
     0
  0
APPID
  5
1BC2
330
9
100
AcDbSymbolTableRecord
100
AcDbRegAppTableRecord
  2
MCAD_NO_VIS
 70
     0
  0
APPID
  5
1BC3
330
9
100
AcDbSymbolTableRecord
100
AcDbRegAppTableRecord
  2
ACAD_TEMP_GRAPHIC
 70
     0
  0
APPID
  5
1BF3
330
9
100
AcDbSymbolTableRecord
100
AcDbRegAppTableRecord
  2
AD_DRAW
 70
     0
  0
APPID
  5
1BF6
330
9
100
AcDbSymbolTableRecord
100
AcDbRegAppTableRecord
  2
ACATTRIBSERVICES
 70
     0
  0
APPID
  5
1C17
330
9
100
AcDbSymbolTableRecord
100
AcDbRegAppTableRecord
  2
DESIGNERASSEMBLIES
 70
     0
  0
APPID
  5
1C1D
330
9
100
AcDbSymbolTableRecord
100
AcDbRegAppTableRecord
  2
ACADM_DIM_EDIT
 70
     0
  0
APPID
  5
1C1E
330
9
100
AcDbSymbolTableRecord
100
AcDbRegAppTableRecord
  2
AMDT_DM_ADJ
 70
     0
  0
APPID
  5
1C7C
330
9
100
AcDbSymbolTableRecord
100
AcDbRegAppTableRecord
  2
ACAD_DSTYLE_DIMARC_LENGTH_SYMBOL
 70
     0
  0
APPID
  5
1C7D
330
9
100
AcDbSymbolTableRecord
100
AcDbRegAppTableRecord
  2
ACAD_DSTYLE_DIM_LINETYPE
 70
     0
  0
APPID
  5
1C7E
330
9
100
AcDbSymbolTableRecord
100
AcDbRegAppTableRecord
  2
ACAD_DSTYLE_DIM_EXT1_LINETYPE
 70
     0
  0
APPID
  5
1C7F
330
9
100
AcDbSymbolTableRecord
100
AcDbRegAppTableRecord
  2
ACAD_DSTYLE_DIM_EXT2_LINETYPE
 70
     0
  0
ENDTAB
  0
TABLE
  2
DIMSTYLE
  5
A
330
0
100
AcDbSymbolTable
 70
    18
100
AcDbDimStyleTable
 71
     0
  0
DIMSTYLE
105
F0B
330
A
100
AcDbSymbolTableRecord
100
AcDbDimStyleTableRecord
  2
STANDARD
 70
     0
340
10
  0
DIMSTYLE
105
1078
330
A
100
AcDbSymbolTableRecord
100
AcDbDimStyleTableRecord
  2
GEN-ISO
 70
     0
  3
<>
 41
2.5
 42
1.0
 43
7.0
 44
1.0
 47
0.1
 48
0.1
 73
     0
 74
     0
 77
     1
 78
     8
140
3.5
141
0.0
143
0.0393701
146
0.71
147
0.6
172
     1
176
   256
177
   256
178
     2
271
     2
272
     3
274
     4
283
     0
340
10
  0
DIMSTYLE
105
14FF
330
A
100
AcDbSymbolTableRecord
100
AcDbDimStyleTableRecord
  2
GEN-ISO$4
 70
     0
  3
<>
 41
2.5
 42
1.0
 43
7.0
 44
1.0
 47
0.1
 48
0.1
 73
     0
 77
     1
 78
     8
140
3.5
141
0.0
143
0.0393701
146
0.71
147
0.6
176
   256
177
   256
178
     2
271
     2
272
     3
274
     4
283
     0
288
     1
289
     0
340
10
  0
DIMSTYLE
105
1500
330
A
100
AcDbSymbolTableRecord
100
AcDbDimStyleTableRecord
  2
GEN-ISO$3
 70
     0
  3
<>
 41
2.5
 42
1.0
 43
7.0
 44
1.0
 47
0.1
 48
0.1
 73
     0
 77
     1
 78
     8
140
3.5
141
0.0
143
0.0393701
146
0.71
147
0.6
176
   256
177
   256
178
     2
271
     2
272
     3
274
     4
283
     0
288
     1
289
     0
340
10
  0
DIMSTYLE
105
1516
330
A
100
AcDbSymbolTableRecord
100
AcDbDimStyleTableRecord
  2
ISO-25
 70
     0
 41
2.5
 42
0.625
 43
3.75
 44
1.25
 74
     0
 77
     1
 78
     8
140
2.5
141
2.5
143
0.0394
145
1.0
147
0.625
172
     1
340
10
  0
DIMSTYLE
105
1C34
102
{ACAD_REACTORS
330
1C24
102
}
330
A
100
AcDbSymbolTableRecord
100
AcDbDimStyleTableRecord
  2
AM_ANSI
 70
     0
  4
"
 41
3.5
 42
1.0
 43
10.0
 44
1.0
 47
0.1
 48
0.1
 78
     8
 79
     2
140
3.5
141
0.0
143
0.0393701
146
0.71
147
1.5
176
   256
177
   256
178
     2
271
     2
272
     3
274
     4
284
     8
340
10
371
    -1
372
    -1
1001
ACAD_DSTYLE_DIMARC_LENGTH_SYMBOL
1070
   379
1070
     1
1001
ACAD_DSTYLE_DIM_LINETYPE
1070
   380
1005
13
1001
ACAD_DSTYLE_DIM_EXT1_LINETYPE
1070
   381
1005
13
1001
ACAD_DSTYLE_DIM_EXT2_LINETYPE
1070
   382
1005
13
  0
DIMSTYLE
105
1C42
330
A
100
AcDbSymbolTableRecord
100
AcDbDimStyleTableRecord
  2
AM_ANSI$3
 70
     0
  4
"
 41
3.5
 42
1.0
 43
10.0
 44
1.0
 47
0.1
 48
0.1
 78
     8
 79
     2
140
3.5
141
0.0
143
0.0393701
146
0.71
147
1.5
176
   256
177
   256
178
     2
271
     2
272
     3
274
     4
284
     8
288
     1
289
     0
340
10
371
    -1
372
    -1
1001
ACAD_DSTYLE_DIMARC_LENGTH_SYMBOL
1070
   379
1070
     1
1001
ACAD_DSTYLE_DIM_LINETYPE
1070
   380
1005
13
1001
ACAD_DSTYLE_DIM_EXT1_LINETYPE
1070
   381
1005
13
1001
ACAD_DSTYLE_DIM_EXT2_LINETYPE
1070
   382
1005
13
  0
DIMSTYLE
105
1C43
330
A
100
AcDbSymbolTableRecord
100
AcDbDimStyleTableRecord
  2
AM_ANSI$4
 70
     0
  4
"
 41
3.5
 42
1.0
 43
10.0
 44
1.0
 47
0.1
 48
0.1
 78
     8
 79
     2
140
3.5
141
0.0
143
0.0393701
146
0.71
147
1.5
176
   256
177
   256
178
     2
271
     2
272
     3
274
     4
284
     8
288
     1
289
     0
340
10
371
    -1
372
    -1
1001
ACAD_DSTYLE_DIMARC_LENGTH_SYMBOL
1070
   379
1070
     1
1001
ACAD_DSTYLE_DIM_LINETYPE
1070
   380
1005
13
1001
ACAD_DSTYLE_DIM_EXT1_LINETYPE
1070
   381
1005
13
1001
ACAD_DSTYLE_DIM_EXT2_LINETYPE
1070
   382
1005
13
  0
DIMSTYLE
105
1C44
330
A
100
AcDbSymbolTableRecord
100
AcDbDimStyleTableRecord
  2
AM_ANSI$7
 70
     0
  4
"
 41
3.5
 42
1.0
 43
10.0
 44
1.0
 47
0.1
 48
0.1
 78
     8
 79
     2
140
3.5
141
0.0
143
0.0393701
146
0.71
147
1.5
176
   256
177
   256
178
     2
271
     2
272
     3
274
     4
284
     8
340
10
371
    -1
372
    -1
1001
ACAD_DSTYLE_DIMARC_LENGTH_SYMBOL
1070
   379
1070
     1
1001
ACAD_DSTYLE_DIM_LINETYPE
1070
   380
1005
13
1001
ACAD_DSTYLE_DIM_EXT1_LINETYPE
1070
   381
1005
13
1001
ACAD_DSTYLE_DIM_EXT2_LINETYPE
1070
   382
1005
13
  0
DIMSTYLE
105
1C45
330
A
100
AcDbSymbolTableRecord
100
AcDbDimStyleTableRecord
  2
AM_ANSI$SF
 70
     0
  4
"
 41
3.5
 42
1.0
 43
10.0
 44
1.0
 47
0.1
 48
0.1
 75
     1
 76
     1
 78
     8
 79
     2
140
3.5
141
0.0
143
0.0393701
146
0.71
147
1.5
176
   256
177
   256
178
     2
271
     2
272
     3
274
     4
284
     8
340
10
371
    -1
372
    -1
1001
ACAD_DSTYLE_DIMARC_LENGTH_SYMBOL
1070
   379
1070
     1
1001
ACAD_DSTYLE_DIM_LINETYPE
1070
   380
1005
13
1001
ACAD_DSTYLE_DIM_EXT1_LINETYPE
1070
   381
1005
13
1001
ACAD_DSTYLE_DIM_EXT2_LINETYPE
1070
   382
1005
13
  0
DIMSTYLE
105
1C4A
330
A
100
AcDbSymbolTableRecord
100
AcDbDimStyleTableRecord
  2
AM_ANSI$SH
 70
     0
  4
"
 41
3.5
 42
1.0
 43
10.0
 44
1.0
 47
0.1
 48
0.1
 75
     1
 76
     1
 78
     8
 79
     2
140
3.5
141
0.0
143
0.0393701
146
0.71
147
1.5
173
     1
176
   256
177
   256
178
     2
271
     2
272
     3
274
     4
284
     8
340
10
343
1C46
371
    -1
372
    -1
1001
ACAD_DSTYLE_DIMARC_LENGTH_SYMBOL
1070
   379
1070
     1
1001
ACAD_DSTYLE_DIM_LINETYPE
1070
   380
1005
13
1001
ACAD_DSTYLE_DIM_EXT1_LINETYPE
1070
   381
1005
13
1001
ACAD_DSTYLE_DIM_EXT2_LINETYPE
1070
   382
1005
13
  0
DIMSTYLE
105
1C57
330
A
100
AcDbSymbolTableRecord
100
AcDbDimStyleTableRecord
  2
GEN-ANSI
 70
     0
  3
<>
 41
2.5
 42
1.0
 43
7.0
 44
1.0
 47
0.1
 48
0.1
 78
     8
140
3.5
141
0.0
143
0.0393701
146
0.71
147
0.6
271
     2
272
     3
274
     4
340
10
  0
DIMSTYLE
105
1C58
330
A
100
AcDbSymbolTableRecord
100
AcDbDimStyleTableRecord
  2
GEN-ANSI$3
 70
     0
  3
<>
 41
2.5
 42
1.0
 43
7.0
 44
1.0
 47
0.1
 48
0.1
 78
     8
140
3.5
141
0.0
143
0.0393701
146
0.71
147
0.6
271
     2
272
     3
274
     4
288
     1
289
     0
340
10
  0
DIMSTYLE
105
1C59
330
A
100
AcDbSymbolTableRecord
100
AcDbDimStyleTableRecord
  2
GEN-ANSI$4
 70
     0
  3
<>
 41
2.5
 42
1.0
 43
7.0
 44
1.0
 47
0.1
 48
0.1
 78
     8
140
3.5
141
0.0
143
0.0393701
146
0.71
147
0.6
271
     2
272
     3
274
     4
288
     1
289
     0
340
10
  0
DIMSTYLE
105
1C5A
330
A
100
AcDbSymbolTableRecord
100
AcDbDimStyleTableRecord
  2
GEN-ANSI$6
 70
     0
  3
<>
 41
2.5
 42
1.0
 43
7.0
 44
1.0
 47
0.1
 48
0.1
 78
     8
140
3.5
141
0.0
143
0.0393701
146
0.71
147
0.6
271
     2
272
     3
274
     4
340
10
  0
DIMSTYLE
105
1C5B
330
A
100
AcDbSymbolTableRecord
100
AcDbDimStyleTableRecord
  2
GEN-ANSI-POS
 70
     0
  3
<>
 41
2.5
 42
1.0
 43
7.0
 44
1.0
 47
0.1
 48
0.1
 73
     0
 74
     0
 78
     8
140
5.0
141
0.0
143
0.0393701
146
0.71
147
1.5
271
     2
272
     3
274
     4
340
10
  0
DIMSTYLE
105
1C5C
330
A
100
AcDbSymbolTableRecord
100
AcDbDimStyleTableRecord
  2
GEN-ANSI-AXE-F
 70
     0
  3
<>
 41
2.5
 42
1.0
 43
7.0
 44
1.0
 47
0.1
 48
0.1
 75
     1
 76
     1
 78
     8
140
3.5
141
0.0
143
0.0393701
146
0.71
147
0.6
173
     1
271
     2
272
     3
274
     4
340
10
343
1C46
  0
DIMSTYLE
105
1C5D
330
A
100
AcDbSymbolTableRecord
100
AcDbDimStyleTableRecord
  2
GEN-ANSI-AXE-H
 70
     0
  3
<>
 41
2.5
 42
1.0
 43
7.0
 44
1.0
 47
0.1
 48
0.1
 73
     0
 74
     0
 75
     1
 76
     1
 78
     8
140
3.5
141
0.0
143
0.0393701
144
2.0
146
0.71
147
0.6
172
     1
173
     1
271
     2
272
     3
274
     4
340
10
343
1C46
  0
ENDTAB
  0
TABLE
  2
BLOCK_RECORD
  5
1
330
0
100
AcDbSymbolTable
 70
    11
  0
BLOCK_RECORD
  5
19
330
1
100
AcDbSymbolTableRecord
100
AcDbBlockTableRecord
  2
*MODEL_SPACE
340
1BB8
  0
BLOCK_RECORD
  5
16
330
1
100
AcDbSymbolTableRecord
100
AcDbBlockTableRecord
  2
*PAPER_SPACE
340
1BB9
  0
BLOCK_RECORD
  5
1017
330
1
100
AcDbSymbolTableRecord
100
AcDbBlockTableRecord
  2
GENINF13
340
0
102
{BLKREFS
331
1ACB
331
187A
102
}
  0
BLOCK_RECORD
  5
1513
330
1
100
AcDbSymbolTableRecord
100
AcDbBlockTableRecord
  2
GEVCON
340
0
  0
BLOCK_RECORD
  5
1517
330
1
100
AcDbSymbolTableRecord
100
AcDbBlockTableRecord
  2
GEVEP
340
0
  0
BLOCK_RECORD
  5
1522
330
1
100
AcDbSymbolTableRecord
100
AcDbBlockTableRecord
  2
GEVFRAME
340
0
  0
BLOCK_RECORD
  5
16B3
330
1
100
AcDbSymbolTableRecord
100
AcDbBlockTableRecord
  2
*X6
340
0
102
{BLKREFS
331
1B07
331
18B6
102
}
  0
BLOCK_RECORD
  5
16BC
330
1
100
AcDbSymbolTableRecord
100
AcDbBlockTableRecord
  2
*X7
340
0
102
{BLKREFS
331
1B46
331
18F5
102
}
  0
BLOCK_RECORD
  5
16C3
330
1
100
AcDbSymbolTableRecord
100
AcDbBlockTableRecord
  2
0500A
340
0
  0
BLOCK_RECORD
  5
1C46
330
1
100
AcDbSymbolTableRecord
100
AcDbBlockTableRecord
  2
GENAXEH
340
0
  0
ENDTAB
  0
ENDSEC
  0
SECTION
  2
BLOCKS
  0
BLOCK
  5
1A
330
19
100
AcDbEntity
  8
0
100
AcDbBlockBegin
  2
*MODEL_SPACE
 70
     0
 10
0.0
 20
0.0
 30
0.0
  3
*MODEL_SPACE
  1

  0
ENDBLK
  5
1B
330
19
100
AcDbEntity
  8
0
100
AcDbBlockEnd
  0
BLOCK
  5
17
330
16
100
AcDbEntity
 67
     1
  8
0
100
AcDbBlockBegin
  2
*PAPER_SPACE
 70
     0
 10
0.0
 20
0.0
 30
0.0
  3
*PAPER_SPACE
  1

  0
ENDBLK
  5
18
330
16
100
AcDbEntity
 67
     1
  8
0
100
AcDbBlockEnd
  0
BLOCK
  5
1027
330
1017
100
AcDbEntity
  8
0
100
AcDbBlockBegin
  2
GENINF13
 70
     2
 10
0.0
 20
0.0
 30
0.0
  3
GENINF13
  1
GENINF13
  0
CIRCLE
  5
1028
330
1017
100
AcDbEntity
  8
INFO
100
AcDbCircle
 10
-0.1079460011883957
 20
1.312243585777231
 30
0.0
 40
0.3390668951753026
  0
CIRCLE
  5
1029
330
1017
100
AcDbEntity
  8
INFO
100
AcDbCircle
 10
0.0
 20
0.0
 30
0.0
 40
1.920194409963144
  0
LINE
  5
102A
330
1017
100
AcDbEntity
  8
INFO
100
AcDbLine
 10
0.4113437479737743
 20
0.7068303850037036
 30
0.0
 11
-0.7000060094186789
 21
0.7068303850037035
 31
0.0
  0
LINE
  5
102B
330
1017
100
AcDbEntity
  8
INFO
100
AcDbLine
 10
0.8299040409314978
 20
-1.341535205482386
 30
0.0
 11
0.8299040409314978
 21
-0.5553667224477728
 31
0.0
  0
LINE
  5
102C
330
1017
100
AcDbEntity
  8
INFO
100
AcDbLine
 10
0.8299040409314978
 20
-0.5553667224477728
 30
0.0
 11
0.4113437479737743
 21
-0.5553667224477728
 31
0.0
  0
LINE
  5
102D
330
1017
100
AcDbEntity
  8
INFO
100
AcDbLine
 10
0.4113437479737743
 20
-0.5553667224477728
 30
0.0
 11
0.4113437479737743
 21
0.7068303850037036
 31
0.0
  0
LINE
  5
102E
330
1017
100
AcDbEntity
  8
INFO
100
AcDbLine
 10
-0.7000060094186789
 20
0.7068303850037035
 30
0.0
 11
-0.7000060094186788
 21
0.1226134319150372
 31
0.0
  0
LINE
  5
102F
330
1017
100
AcDbEntity
  8
INFO
100
AcDbLine
 10
-0.7000060094186788
 20
0.1226134319150372
 30
0.0
 11
-0.3752609491200999
 21
0.1226134319150372
 31
0.0
  0
LINE
  5
1030
330
1017
100
AcDbEntity
  8
INFO
100
AcDbLine
 10
-0.3752609491200999
 20
0.1226134319150372
 30
0.0
 11
-0.3752609491200999
 21
-0.5553667224477728
 31
0.0
  0
LINE
  5
1031
330
1017
100
AcDbEntity
  8
INFO
100
AcDbLine
 10
-0.3752609491200999
 20
-0.5553667224477728
 30
0.0
 11
-0.8010378055452676
 21
-0.5553667224477728
 31
0.0
  0
LINE
  5
1032
330
1017
100
AcDbEntity
  8
INFO
100
AcDbLine
 10
-0.8010378055452676
 20
-0.5553667224477728
 30
0.0
 11
-0.8010378055452676
 21
-1.341535205482386
 31
0.0
  0
LINE
  5
1033
330
1017
100
AcDbEntity
  8
INFO
100
AcDbLine
 10
-0.8010378055452676
 20
-1.341535205482386
 30
0.0
 11
0.8299040409314978
 21
-1.341535205482386
 31
0.0
  0
ATTDEF
  5
1034
330
1017
100
AcDbEntity
  8
INFO
100
AcDbText
 10
0.0
 20
0.0
 30
0.0
 40
1.0
  1
1
100
AcDbAttributeDefinition
  3
Menge
  2
2GENINF
 70
     1
  0
ATTDEF
  5
1035
330
1017
100
AcDbEntity
  8
INFO
100
AcDbText
 10
0.0
 20
-1.5
 30
0.0
 40
1.0
  1

100
AcDbAttributeDefinition
  3
Stücklisten-Name
  2
3GENINF
 70
     1
  0
ATTDEF
  5
1036
330
1017
100
AcDbEntity
  8
INFO
100
AcDbText
 10
0.0
 20
-3.0
 30
0.0
 40
1.0
  1

100
AcDbAttributeDefinition
  3
Stücklisten-Pfad
  2
4GENINF
 70
     1
  0
ATTDEF
  5
1037
330
1017
100
AcDbEntity
  8
INFO
100
AcDbText
 10
0.0
 20
-4.5
 30
0.0
 40
1.0
  1

100
AcDbAttributeDefinition
  3
Beschreibung 1
  2
5GENINF
 70
     1
  0
ATTDEF
  5
1038
330
1017
100
AcDbEntity
  8
INFO
100
AcDbText
 10
0.0
 20
-6.0
 30
0.0
 40
1.0
  1

100
AcDbAttributeDefinition
  3
Beschreibung 2
  2
6GENINF
 70
     1
  0
ATTDEF
  5
1039
330
1017
100
AcDbEntity
  8
INFO
100
AcDbText
 10
0.0
 20
-7.5
 30
0.0
 40
1.0
  1

100
AcDbAttributeDefinition
  3
Norm/Lieferant 1
  2
7GENINF
 70
     1
  0
ATTDEF
  5
103A
330
1017
100
AcDbEntity
  8
INFO
100
AcDbText
 10
0.0
 20
-9.0
 30
0.0
 40
1.0
  1

100
AcDbAttributeDefinition
  3
Norm/Lieferant 2
  2
8GENINF
 70
     1
  0
ATTDEF
  5
103B
330
1017
100
AcDbEntity
  8
INFO
100
AcDbText
 10
0.0
 20
-10.5
 30
0.0
 40
1.0
  1

100
AcDbAttributeDefinition
  3
Material 1
  2
9GENINF
 70
     1
  0
ATTDEF
  5
103C
330
1017
100
AcDbEntity
  8
INFO
100
AcDbText
 10
0.0
 20
-12.0
 30
0.0
 40
1.0
  1

100
AcDbAttributeDefinition
  3
Material 2
  2
10GENINF
 70
     1
  0
ATTDEF
  5
103D
330
1017
100
AcDbEntity
  8
INFO
100
AcDbText
 10
0.0
 20
-13.5
 30
0.0
 40
1.0
  1

100
AcDbAttributeDefinition
  3
Identnummer
  2
11GENINF
 70
     1
  0
ATTDEF
  5
103E
330
1017
100
AcDbEntity
  8
INFO
100
AcDbText
 10
0.0
 20
-15.0
 30
0.0
 40
1.0
  1

100
AcDbAttributeDefinition
  3
Gewicht
  2
12GENINF
 70
     1
  0
ATTDEF
  5
103F
330
1017
100
AcDbEntity
  8
INFO
100
AcDbText
 10
0.0
 20
-16.5
 30
0.0
 40
1.0
  1

100
AcDbAttributeDefinition
  3
Preis
  2
13GENINF
 70
     1
  0
ATTDEF
  5
1040
330
1017
100
AcDbEntity
  8
INFO
100
AcDbText
 10
0.0
 20
-18.0
 30
0.0
 40
1.0
  1

100
AcDbAttributeDefinition
  3
Abmessungen
  2
14GENINF
 70
     1
  0
ATTDEF
  5
1041
330
1017
100
AcDbEntity
  8
INFO
100
AcDbText
 10
0.0
 20
-19.5
 30
0.0
 40
1.0
  1

100
AcDbAttributeDefinition
  3
User 1
  2
15GENINF
 70
     1
  0
ATTDEF
  5
1042
330
1017
100
AcDbEntity
  8
INFO
100
AcDbText
 10
0.0
 20
-21.0
 30
0.0
 40
1.0
  1

100
AcDbAttributeDefinition
  3
User 2
  2
16GENINF
 70
     1
  0
ATTDEF
  5
1043
330
1017
100
AcDbEntity
  8
INFO
100
AcDbText
 10
0.0
 20
-22.5
 30
0.0
 40
1.0
  1

100
AcDbAttributeDefinition
  3
User 3
  2
17GENINF
 70
     1
  0
ATTDEF
  5
1044
330
1017
100
AcDbEntity
  8
INFO
100
AcDbText
 10
0.0
 20
-24.0
 30
0.0
 40
1.0
  1

100
AcDbAttributeDefinition
  3
User 4
  2
18GENINF
 70
     1
  0
ATTDEF
  5
1045
330
1017
100
AcDbEntity
  8
INFO
100
AcDbText
 10
0.0
 20
-25.5
 30
0.0
 40
1.0
  1

100
AcDbAttributeDefinition
  3
User 5
  2
19GENINF
 70
     1
  0
ATTDEF
  5
1046
330
1017
100
AcDbEntity
  8
INFO
100
AcDbText
 10
0.0
 20
-27.0
 30
0.0
 40
1.0
  1

100
AcDbAttributeDefinition
  3
User 6
  2
20GENINF
 70
     1
  0
ATTDEF
  5
1047
330
1017
100
AcDbEntity
  8
INFO
100
AcDbText
 10
0.0
 20
-28.5
 30
0.0
 40
1.0
  1

100
AcDbAttributeDefinition
  3
User 7
  2
21GENINF
 70
     1
  0
ATTDEF
  5
1048
330
1017
100
AcDbEntity
  8
INFO
100
AcDbText
 10
0.0
 20
-30.0
 30
0.0
 40
1.0
  1

100
AcDbAttributeDefinition
  3
User 8
  2
22GENINF
 70
     1
  0
ATTDEF
  5
1049
330
1017
100
AcDbEntity
  8
INFO
100
AcDbText
 10
0.0
 20
-31.5
 30
0.0
 40
1.0
  1

100
AcDbAttributeDefinition
  3
Filter
  2
23GENINF
 70
     1
  0
ATTDEF
  5
104A
330
1017
100
AcDbEntity
  8
INFO
100
AcDbText
 10
0.0
 20
-33.0
 30
0.0
 40
1.0
  1

100
AcDbAttributeDefinition
  3
Bemerkung
  2
24GENINF
 70
     1
  0
ATTDEF
  5
104B
330
1017
100
AcDbEntity
  8
INFO
100
AcDbText
 10
0.0
 20
-34.5
 30
0.0
 40
1.0
  1

100
AcDbAttributeDefinition
  3
Genius Normteile ID
  2
0GENINF
 70
     1
  0
ENDBLK
  5
104C
330
1017
100
AcDbEntity
  8
0
100
AcDbBlockEnd
  0
BLOCK
  5
1514
330
1513
100
AcDbEntity
  8
0
100
AcDbBlockBegin
  2
GEVCON
 70
     0
 10
0.0
 20
0.0
 30
0.0
  3
GEVCON
  1
GEVCON
  0
ENDBLK
  5
1515
330
1513
100
AcDbEntity
  8
0
100
AcDbBlockEnd
  0
BLOCK
  5
1520
330
1517
100
AcDbEntity
  8
MSR1-5
100
AcDbBlockBegin
  2
GEVEP
 70
     0
 10
0.0
 20
0.0
 30
0.0
  3
GEVEP
  1

  0
LINE
  5
1518
330
1517
100
AcDbEntity
  8
0
100
AcDbLine
 10
-1.875000000000106
 20
-3.247595264191687
 30
0.0
 11
1.87499999999995
 21
3.247595264191744
 31
0.0
  0
LINE
  5
1519
330
1517
100
AcDbEntity
  8
0
100
AcDbLine
 10
1.87499999999995
 20
-3.247595264191573
 30
0.0
 11
-1.875000000000049
 21
3.247595264191744
 31
0.0
  0
LINE
  5
151A
330
1517
100
AcDbEntity
  8
0
100
AcDbLine
 10
-3.247595264191765
 20
-1.874999999999971
 30
0.0
 11
3.247595264191609
 21
1.875000000000028
 31
0.0
  0
LINE
  5
151B
330
1517
100
AcDbEntity
  8
0
100
AcDbLine
 10
3.247595264191609
 20
-1.874999999999971
 30
0.0
 11
-3.247595264191708
 21
1.875000000000028
 31
0.0
  0
ARC
  5
151C
330
1517
100
AcDbEntity
  8
0
100
AcDbCircle
 10
-0.0000000000000495
 20
0.0000000000000857
 30
0.0
 40
3.75
100
AcDbArc
 50
210.0
 51
240.0
  0
ARC
  5
151D
330
1517
100
AcDbEntity
  8
0
100
AcDbCircle
 10
-0.0000000000000495
 20
0.0000000000000857
 30
0.0
 40
3.75
100
AcDbArc
 50
119.9999999999987
 51
149.9999999999989
  0
ARC
  5
151E
330
1517
100
AcDbEntity
  8
0
100
AcDbCircle
 10
-0.0000000000000495
 20
0.0000000000000857
 30
0.0
 40
3.75
100
AcDbArc
 50
300.0000000000011
 51
330.0000000000023
  0
ARC
  5
151F
330
1517
100
AcDbEntity
  8
0
100
AcDbCircle
 10
-0.0000000000000495
 20
0.0000000000000857
 30
0.0
 40
3.75
100
AcDbArc
 50
30.00000000000005
 51
59.99999999999999
  0
ENDBLK
  5
1521
330
1517
100
AcDbEntity
  8
MSR1-5
100
AcDbBlockEnd
  0
BLOCK
  5
1523
330
1522
100
AcDbEntity
  8
0
100
AcDbBlockBegin
  2
GEVFRAME
 70
     0
 10
0.0
 20
0.0
 30
0.0
  3
GEVFRAME
  1
GEVFRAME
  0
LINE
  5
1524
330
1522
100
AcDbEntity
  8
0
100
AcDbLine
 10
0.0
 20
0.0
 30
0.0
 11
1.0
 21
0.0
 31
0.0
  0
LINE
  5
1525
330
1522
100
AcDbEntity
  8
0
100
AcDbLine
 10
1.0
 20
0.0
 30
0.0
 11
1.0
 21
1.0
 31
0.0
  0
LINE
  5
1526
330
1522
100
AcDbEntity
  8
0
100
AcDbLine
 10
1.0
 20
1.0
 30
0.0
 11
0.0
 21
1.0
 31
0.0
  0
LINE
  5
1527
330
1522
100
AcDbEntity
  8
0
100
AcDbLine
 10
0.0
 20
1.0
 30
0.0
 11
0.0
 21
0.0
 31
0.0
  0
ENDBLK
  5
1528
330
1522
100
AcDbEntity
  8
0
100
AcDbBlockEnd
  0
BLOCK
  5
16BA
330
16B3
100
AcDbEntity
  8
0
100
AcDbBlockBegin
  2
*X6
 70
     1
 10
0.0
 20
0.0
 30
0.0
  3
*X6
  1

  0
LINE
  5
16B4
330
16B3
100
AcDbEntity
  8
0
 62
     0
100
AcDbLine
 10
158.05949917153
 20
142.1495965948327
 30
0.0
 11
160.954334
 21
145.0444314233027
 31
0.0
  0
LINE
  5
16B5
330
16B3
100
AcDbEntity
  8
0
 62
     0
100
AcDbLine
 10
158.1178219826965
 20
143.9756863589656
 30
0.0
 11
160.4861496237309
 21
146.344014
 31
0.0
  0
LINE
  5
16B6
330
16B3
100
AcDbEntity
  8
0
 62
     0
100
AcDbLine
 10
157.8004544009519
 20
145.4260857301873
 30
0.0
 11
158.7183826707645
 21
146.344014
 31
0.0
  0
LINE
  5
16B7
330
16B3
100
AcDbEntity
  8
0
 62
     0
100
AcDbLine
 10
159.0216835296637
 20
141.344014
 30
0.0
 11
162.354334
 21
144.6766644703363
 31
0.0
  0
LINE
  5
16B8
330
16B3
100
AcDbEntity
  8
0
 62
     0
100
AcDbLine
 10
160.78945048263
 20
141.344014
 30
0.0
 11
160.954334
 21
141.5088975173699
 31
0.0
  0
LINE
  5
16B9
330
16B3
100
AcDbEntity
  8
0
 62
     0
100
AcDbLine
 10
161.78945048263
 20
142.344014
 30
0.0
 11
162.354334
 21
142.9088975173699
 31
0.0
  0
ENDBLK
  5
16BB
330
16B3
100
AcDbEntity
  8
0
100
AcDbBlockEnd
  0
BLOCK
  5
16C1
330
16BC
100
AcDbEntity
  8
0
100
AcDbBlockBegin
  2
*X7
 70
     1
 10
0.0
 20
0.0
 30
0.0
  3
*X7
  1

  0
LINE
  5
16BD
330
16BC
100
AcDbEntity
  8
0
 62
     0
100
AcDbLine
 10
166.554334
 20
143.5733636114372
 30
0.0
 11
167.7249843885627
 21
144.7440139999999
 31
0.0
  0
LINE
  5
16BE
330
16BC
100
AcDbEntity
  8
0
 62
     0
100
AcDbLine
 10
167.954334
 20
144.9733636114372
 30
0.0
 11
168.454334
 21
145.4733636114372
 31
0.0
  0
LINE
  5
16BF
330
16BC
100
AcDbEntity
  8
0
 62
     0
100
AcDbLine
 10
167.0927513415291
 20
142.344014
 30
0.0
 11
168.454334
 21
143.7055966584708
 31
0.0
  0
LINE
  5
16C0
330
16BC
100
AcDbEntity
  8
0
 62
     0
100
AcDbLine
 10
167.954334
 20
141.4378297055045
 30
0.0
 11
168.454334
 21
141.9378297055045
 31
0.0
  0
ENDBLK
  5
16C2
330
16BC
100
AcDbEntity
  8
0
100
AcDbBlockEnd
  0
BLOCK
  5
190F
330
16C3
100
AcDbEntity
  8
MSR1-0
100
AcDbBlockBegin
  2
0500A
 70
     0
 10
0.0
 20
0.0
 30
0.0
  3
0500A
  1

  0
POLYLINE
  5
16C4
330
16C3
100
AcDbEntity
  8
MSR1-4A
100
AcDb2dPolyline
 66
     1
 10
0.0
 20
0.0
 30
0.0
  0
VERTEX
  5
16C5
330
16C4
100
AcDbEntity
  8
MSR1-4A
100
AcDbVertex
100
AcDb2dVertex
 10
-39.80000000000006
 20
-55.85709367838532
 30
0.0
  0
VERTEX
  5
16C6
330
16C4
100
AcDbEntity
  8
MSR1-4A
100
AcDbVertex
100
AcDb2dVertex
 10
-65.80000000000005
 20
-55.85709367838532
 30
0.0
  0
VERTEX
  5
16C7
330
16C4
100
AcDbEntity
  8
MSR1-4A
100
AcDbVertex
100
AcDb2dVertex
 10
-65.80000000000005
 20
-63.85709367838533
 30
0.0
  0
VERTEX
  5
16C8
330
16C4
100
AcDbEntity
  8
MSR1-4A
100
AcDbVertex
100
AcDb2dVertex
 10
-39.80000000000006
 20
-63.85709367838533
 30
0.0
  0
SEQEND
  5
16C9
330
16C4
100
AcDbEntity
  8
MSR1-4A
  0
LINE
  5
16CA
330
16C3
100
AcDbEntity
  8
MSR1-7
100
AcDbLine
 10
-67.03080700000005
 20
-59.85709367838532
 30
0.0
 11
-39.80000000000006
 21
-59.85709367838532
 31
0.0
  0
POLYLINE
  5
16CB
330
16C3
100
AcDbEntity
  8
MSR1-4A
100
AcDb2dPolyline
 66
     1
 10
0.0
 20
0.0
 30
0.0
  0
VERTEX
  5
16CC
330
16CB
100
AcDbEntity
  8
MSR1-4A
100
AcDbVertex
100
AcDb2dVertex
 10
-39.80000000000006
 20
-54.85709367838532
 30
0.0
  0
VERTEX
  5
16CD
330
16CB
100
AcDbEntity
  8
MSR1-4A
100
AcDbVertex
100
AcDb2dVertex
 10
-60.80000000000005
 20
-54.85709367838532
 30
0.0
  0
VERTEX
  5
16CE
330
16CB
100
AcDbEntity
  8
MSR1-4A
100
AcDbVertex
100
AcDb2dVertex
 10
-60.80000000000005
 20
-64.85709367838532
 30
0.0
  0
VERTEX
  5
16CF
330
16CB
100
AcDbEntity
  8
MSR1-4A
100
AcDbVertex
100
AcDb2dVertex
 10
-39.80000000000006
 20
-64.85709367838532
 30
0.0
  0
SEQEND
  5
16D0
330
16CB
100
AcDbEntity
  8
MSR1-4A
  0
TEXT
  5
16D1
330
16C3
100
AcDbEntity
  8
MSR1-6
100
AcDbText
 10
-131.0581826747779
 20
19.26228830203917
 30
0.0
 40
50.0
  1
MSR 1
100
AcDbText
  0
POLYLINE
  5
16D2
330
16C3
100
AcDbEntity
  8
MSR1-0
100
AcDb2dPolyline
 66
     1
 10
0.0
 20
0.0
 30
0.0
 70
     1
  0
VERTEX
  5
16D3
330
16D2
100
AcDbEntity
  8
MSR1-0
100
AcDbVertex
100
AcDb2dVertex
 10
-117.911625
 20
-47.85709367838532
 30
0.0
  0
VERTEX
  5
16D4
330
16D2
100
AcDbEntity
  8
MSR1-0
100
AcDbVertex
100
AcDb2dVertex
 10
-87.91162500000005
 20
-47.85709367838532
 30
0.0
  0
VERTEX
  5
16D5
330
16D2
100
AcDbEntity
  8
MSR1-0
100
AcDbVertex
100
AcDb2dVertex
 10
-87.91162500000005
 20
-83.3570936783853
 30
0.0
  0
VERTEX
  5
16D6
330
16D2
100
AcDbEntity
  8
MSR1-0
100
AcDbVertex
100
AcDb2dVertex
 10
-117.911625
 20
-83.3570936783853
 30
0.0
  0
VERTEX
  5
16D7
330
16D2
100
AcDbEntity
  8
MSR1-0
100
AcDbVertex
100
AcDb2dVertex
 10
-117.911625
 20
-47.85709367838532
 30
0.0
  0
SEQEND
  5
16D8
330
16D2
100
AcDbEntity
  8
MSR1-0
  0
LINE
  5
16D9
330
16C3
100
AcDbEntity
  8
MSR1-7
100
AcDbLine
 10
-102.911625
 20
-28.21323667838533
 30
0.0
 11
-102.911625
 21
-85.33198667838531
 31
0.0
  0
LINE
  5
16DA
330
16C3
100
AcDbEntity
  8
MSR1-0
100
AcDbLine
 10
-117.911625
 20
-73.35709367838531
 30
0.0
 11
-87.91162500000005
 21
-73.35709367838531
 31
0.0
  0
TEXT
  5
16DB
330
16C3
100
AcDbEntity
  8
MSR1-6
100
AcDbText
 10
-116.0877163714264
 20
-81.52419381178335
 30
0.0
 40
2.0
  1
MSR1
100
AcDbText
  0
POLYLINE
  5
16DC
330
16C3
100
AcDbEntity
  8
MSR1-0
100
AcDb2dPolyline
 66
     1
 10
0.0
 20
0.0
 30
0.0
 70
     1
  0
VERTEX
  5
16DD
330
16DC
100
AcDbEntity
  8
MSR1-0
100
AcDbVertex
100
AcDb2dVertex
 10
-117.911625
 20
-35.35709367838533
 30
0.0
  0
VERTEX
  5
16DE
330
16DC
100
AcDbEntity
  8
MSR1-0
100
AcDbVertex
100
AcDb2dVertex
 10
-87.91162500000005
 20
-35.35709367838533
 30
0.0
  0
VERTEX
  5
16DF
330
16DC
100
AcDbEntity
  8
MSR1-0
100
AcDbVertex
100
AcDb2dVertex
 10
-87.91162500000005
 20
-30.35709367838533
 30
0.0
  0
VERTEX
  5
16E0
330
16DC
100
AcDbEntity
  8
MSR1-0
100
AcDbVertex
100
AcDb2dVertex
 10
-117.911625
 20
-30.35709367838533
 30
0.0
  0
VERTEX
  5
16E1
330
16DC
100
AcDbEntity
  8
MSR1-0
100
AcDbVertex
100
AcDb2dVertex
 10
-117.911625
 20
-35.35709367838533
 30
0.0
  0
SEQEND
  5
16E2
330
16DC
100
AcDbEntity
  8
MSR1-0
  0
POLYLINE
  5
16E3
330
16C3
100
AcDbEntity
  8
MSR1-0
100
AcDb2dPolyline
 66
     1
 10
0.0
 20
0.0
 30
0.0
 70
     1
  0
VERTEX
  5
16E4
330
16E3
100
AcDbEntity
  8
MSR1-0
100
AcDbVertex
100
AcDb2dVertex
 10
-117.911625
 20
-44.35709367838533
 30
0.0
  0
VERTEX
  5
16E5
330
16E3
100
AcDbEntity
  8
MSR1-0
100
AcDbVertex
100
AcDb2dVertex
 10
-87.91162500000005
 20
-44.35709367838533
 30
0.0
  0
VERTEX
  5
16E6
330
16E3
100
AcDbEntity
  8
MSR1-0
100
AcDbVertex
100
AcDb2dVertex
 10
-87.91162500000005
 20
-46.85709367838533
 30
0.0
  0
VERTEX
  5
16E7
330
16E3
100
AcDbEntity
  8
MSR1-0
100
AcDbVertex
100
AcDb2dVertex
 10
-117.911625
 20
-46.85709367838533
 30
0.0
  0
VERTEX
  5
16E8
330
16E3
100
AcDbEntity
  8
MSR1-0
100
AcDbVertex
100
AcDb2dVertex
 10
-117.911625
 20
-44.35709367838533
 30
0.0
  0
SEQEND
  5
16E9
330
16E3
100
AcDbEntity
  8
MSR1-0
  0
LINE
  5
16EA
330
16C3
100
AcDbEntity
  8
MSR1-7
100
AcDbLine
 10
-113.911625
 20
-28.25859367838532
 30
0.0
 11
-113.911625
 21
-36.97912967838531
 31
0.0
  0
LINE
  5
16EB
330
16C3
100
AcDbEntity
  8
MSR1-7
100
AcDbLine
 10
-107.911625
 20
-34.31748967838533
 30
0.0
 11
-107.911625
 21
-45.41915667838532
 31
0.0
  0
LINE
  5
16EC
330
16C3
100
AcDbEntity
  8
MSR1-0
100
AcDbLine
 10
-117.911625
 20
-44.35709367838533
 30
0.0
 11
-117.911625
 21
-35.35709367838533
 31
0.0
  0
LINE
  5
16ED
330
16C3
100
AcDbEntity
  8
MSR1-0
100
AcDbLine
 10
-111.911625
 20
-35.35709367838533
 30
0.0
 11
-111.911625
 21
-44.35709367838533
 31
0.0
  0
LINE
  5
16EE
330
16C3
100
AcDbEntity
  8
MSR1-0
100
AcDbLine
 10
-117.911625
 20
-47.85709367838532
 30
0.0
 11
-117.911625
 21
-46.85709367838533
 31
0.0
  0
LINE
  5
16EF
330
16C3
100
AcDbEntity
  8
MSR1-7
100
AcDbLine
 10
-91.91162500000006
 20
-28.93895067838531
 30
0.0
 11
-91.91162500000006
 21
-36.8657366783853
 31
0.0
  0
LINE
  5
16F0
330
16C3
100
AcDbEntity
  8
MSR1-0
100
AcDbLine
 10
-93.91162500000005
 20
-35.35709367838533
 30
0.0
 11
-93.91162500000005
 21
-44.35709367838533
 31
0.0
  0
LINE
  5
16F1
330
16C3
100
AcDbEntity
  8
MSR1-0
100
AcDbLine
 10
-103.911625
 20
-35.35709367838533
 30
0.0
 11
-103.911625
 21
-44.35709367838533
 31
0.0
  0
LINE
  5
16F2
330
16C3
100
AcDbEntity
  8
MSR1-0
100
AcDbLine
 10
-101.911625
 20
-35.35709367838533
 30
0.0
 11
-101.911625
 21
-44.35709367838533
 31
0.0
  0
LINE
  5
16F3
330
16C3
100
AcDbEntity
  8
MSR1-7
100
AcDbLine
 10
-97.91162500000005
 20
-34.26457367838532
 30
0.0
 11
-97.91162500000005
 21
-45.63082367838529
 31
0.0
  0
LINE
  5
16F4
330
16C3
100
AcDbEntity
  8
MSR1-0
100
AcDbLine
 10
-87.91162500000005
 20
-35.35709367838533
 30
0.0
 11
-87.91162500000005
 21
-44.35709367838533
 31
0.0
  0
LINE
  5
16F5
330
16C3
100
AcDbEntity
  8
MSR1-0
100
AcDbLine
 10
-87.91162500000005
 20
-46.85709367838533
 30
0.0
 11
-87.91162500000005
 21
-47.85709367838532
 31
0.0
  0
LINE
  5
16F6
330
16C3
100
AcDbEntity
  8
MSR1-7
100
AcDbLine
 10
-0.0000000000000284
 20
-27.26755667838532
 30
0.0
 11
-0.0000000000000284
 21
-86.86613567838533
 31
0.0
  0
POLYLINE
  5
16F7
330
16C3
100
AcDbEntity
  8
MSR1-0
100
AcDb2dPolyline
 66
     1
 10
0.0
 20
0.0
 30
0.0
 70
     1
  0
VERTEX
  5
16F8
330
16F7
100
AcDbEntity
  8
MSR1-0
100
AcDbVertex
100
AcDb2dVertex
 10
-28.30000000000005
 20
-55.4607766783853
 30
0.0
  0
VERTEX
  5
16F9
330
16F7
100
AcDbEntity
  8
MSR1-0
100
AcDbVertex
100
AcDb2dVertex
 10
-28.30000000000005
 20
-73.35709367838531
 30
0.0
  0
VERTEX
  5
16FA
330
16F7
100
AcDbEntity
  8
MSR1-0
100
AcDbVertex
100
AcDb2dVertex
 10
-35.80000000000005
 20
-73.35709367838531
 30
0.0
  0
VERTEX
  5
16FB
330
16F7
100
AcDbEntity
  8
MSR1-0
100
AcDbVertex
100
AcDb2dVertex
 10
-35.80000000000005
 20
-47.85709367838532
 30
0.0
  0
VERTEX
  5
16FC
330
16F7
100
AcDbEntity
  8
MSR1-0
100
AcDbVertex
100
AcDb2dVertex
 10
-28.30000000000005
 20
-47.85709367838532
 30
0.0
  0
VERTEX
  5
16FD
330
16F7
100
AcDbEntity
  8
MSR1-0
100
AcDbVertex
100
AcDb2dVertex
 10
-28.30000000000005
 20
-55.4607766783853
 30
0.0
  0
VERTEX
  5
16FE
330
16F7
100
AcDbEntity
  8
MSR1-0
100
AcDbVertex
100
AcDb2dVertex
 10
-28.30000000000005
 20
-55.4607766783853
 30
0.0
  0
SEQEND
  5
16FF
330
16F7
100
AcDbEntity
  8
MSR1-0
  0
LINE
  5
1700
330
16C3
100
AcDbEntity
  8
MSR1-4
100
AcDbLine
 10
-39.80000000000006
 20
-59.85709367838532
 30
0.0
 11
-35.80000000000005
 21
-53.35709367838532
 31
0.0
  0
LINE
  5
1701
330
16C3
100
AcDbEntity
  8
MSR1-4
100
AcDbLine
 10
-39.80000000000006
 20
-53.35709367838532
 30
0.0
 11
-35.80000000000005
 21
-59.85709367838532
 31
0.0
  0
POLYLINE
  5
1702
330
16C3
100
AcDbEntity
  8
MSR1-0
100
AcDb2dPolyline
 66
     1
 10
0.0
 20
0.0
 30
0.0
  0
VERTEX
  5
1703
330
1702
100
AcDbEntity
  8
MSR1-0
100
AcDbVertex
100
AcDb2dVertex
 10
-35.80000000000005
 20
-53.35709367838532
 30
0.0
  0
VERTEX
  5
1704
330
1702
100
AcDbEntity
  8
MSR1-0
100
AcDbVertex
100
AcDb2dVertex
 10
-39.80000000000006
 20
-53.35709367838532
 30
0.0
  0
VERTEX
  5
1705
330
1702
100
AcDbEntity
  8
MSR1-0
100
AcDbVertex
100
AcDb2dVertex
 10
-39.80000000000006
 20
-66.35709367838533
 30
0.0
  0
VERTEX
  5
1706
330
1702
100
AcDbEntity
  8
MSR1-0
100
AcDbVertex
100
AcDb2dVertex
 10
-35.80000000000005
 20
-66.35709367838533
 30
0.0
  0
SEQEND
  5
1707
330
1702
100
AcDbEntity
  8
MSR1-0
  0
POLYLINE
  5
1708
330
16C3
100
AcDbEntity
  8
MSR1-0
100
AcDb2dPolyline
 66
     1
 10
0.0
 20
0.0
 30
0.0
  0
VERTEX
  5
1709
330
1708
100
AcDbEntity
  8
MSR1-0
100
AcDbVertex
100
AcDb2dVertex
 10
-16.30000000000004
 20
-48.15709367838533
 30
0.0
  0
VERTEX
  5
170A
330
1708
100
AcDbEntity
  8
MSR1-0
100
AcDbVertex
100
AcDb2dVertex
 10
30.19999999999996
 20
-48.15709367838533
 30
0.0
  0
VERTEX
  5
170B
330
1708
100
AcDbEntity
  8
MSR1-0
100
AcDbVertex
100
AcDb2dVertex
 10
30.19999999999996
 20
-73.35709367838531
 30
0.0
  0
VERTEX
  5
170C
330
1708
100
AcDbEntity
  8
MSR1-0
100
AcDbVertex
100
AcDb2dVertex
 10
-28.30000000000005
 20
-73.35709367838531
 30
0.0
  0
SEQEND
  5
170D
330
1708
100
AcDbEntity
  8
MSR1-0
  0
CIRCLE
  5
170E
330
16C3
100
AcDbEntity
  8
MSR1-0
100
AcDbCircle
 10
-0.0000000000000284
 20
-118.810846643108
 30
0.0
 40
4.5
  0
LINE
  5
170F
330
16C3
100
AcDbEntity
  8
MSR1-7
100
AcDbLine
 10
-5.873278000000027
 20
-118.810846643108
 30
0.0
 11
18.30157099999997
 21
-118.810846643108
 31
0.0
  0
POLYLINE
  5
1710
330
16C3
100
AcDbEntity
  8
MSR1-0
100
AcDb2dPolyline
 66
     1
 10
0.0
 20
0.0
 30
0.0
 70
     1
  0
VERTEX
  5
1711
330
1710
100
AcDbEntity
  8
MSR1-0
100
AcDbVertex
100
AcDb2dVertex
 10
-15.00000000000003
 20
-103.810846643108
 30
0.0
  0
VERTEX
  5
1712
330
1710
100
AcDbEntity
  8
MSR1-0
100
AcDbVertex
100
AcDb2dVertex
 10
14.99999999999997
 20
-103.810846643108
 30
0.0
  0
VERTEX
  5
1713
330
1710
100
AcDbEntity
  8
MSR1-0
100
AcDbVertex
100
AcDb2dVertex
 10
14.99999999999997
 20
-133.810846643108
 30
0.0
  0
VERTEX
  5
1714
330
1710
100
AcDbEntity
  8
MSR1-0
100
AcDbVertex
100
AcDb2dVertex
 10
-15.00000000000003
 20
-133.810846643108
 30
0.0
  0
VERTEX
  5
1715
330
1710
100
AcDbEntity
  8
MSR1-0
100
AcDbVertex
100
AcDb2dVertex
 10
-15.00000000000003
 20
-103.810846643108
 30
0.0
  0
SEQEND
  5
1716
330
1710
100
AcDbEntity
  8
MSR1-0
  0
POLYLINE
  5
1717
330
16C3
100
AcDbEntity
  8
MSR1-0
100
AcDb2dPolyline
 66
     1
 10
0.0
 20
0.0
 30
0.0
  0
VERTEX
  5
1718
330
1717
100
AcDbEntity
  8
MSR1-0
100
AcDbVertex
100
AcDb2dVertex
 10
30.19999999999996
 20
-73.35709367838531
 30
0.0
  0
VERTEX
  5
1719
330
1717
100
AcDbEntity
  8
MSR1-0
100
AcDbVertex
100
AcDb2dVertex
 10
30.19999999999996
 20
-83.3570936783853
 30
0.0
  0
VERTEX
  5
171A
330
1717
100
AcDbEntity
  8
MSR1-0
100
AcDbVertex
100
AcDb2dVertex
 10
-35.80000000000005
 20
-83.3570936783853
 30
0.0
  0
VERTEX
  5
171B
330
1717
100
AcDbEntity
  8
MSR1-0
100
AcDbVertex
100
AcDb2dVertex
 10
-35.80000000000005
 20
-73.35709367838531
 30
0.0
  0
SEQEND
  5
171C
330
1717
100
AcDbEntity
  8
MSR1-0
  0
CIRCLE
  5
171D
330
16C3
100
AcDbEntity
  8
MSR1-0
100
AcDbCircle
 10
-11.00000000000003
 20
-129.810846643108
 30
0.0
 40
3.5
  0
ARC
  5
171E
330
16C3
100
AcDbEntity
  8
MSR1-4
100
AcDbCircle
 10
-11.00000000000003
 20
-129.810846643108
 30
0.0
 40
2.5
100
AcDbArc
 50
89.999999
 51
0.0
  0
CIRCLE
  5
171F
330
16C3
100
AcDbEntity
  8
MSR1-0
100
AcDbCircle
 10
-11.00000000000003
 20
-129.810846643108
 30
0.0
 40
2.1
  0
LINE
  5
1720
330
16C3
100
AcDbEntity
  8
MSR1-7
100
AcDbLine
 10
-11.00000000000003
 20
-125.2057696431081
 30
0.0
 11
-11.00000000000003
 21
-134.075925643108
 31
0.0
  0
LINE
  5
1721
330
16C3
100
AcDbEntity
  8
MSR1-4
100
AcDbLine
 10
-49.80000000000005
 20
-127.810846643108
 30
0.0
 11
-42.30000000000005
 21
-131.810846643108
 31
0.0
  0
LINE
  5
1722
330
16C3
100
AcDbEntity
  8
MSR1-4
100
AcDbLine
 10
-42.30000000000005
 20
-127.810846643108
 30
0.0
 11
-49.80000000000005
 21
-131.810846643108
 31
0.0
  0
LINE
  5
1723
330
16C3
100
AcDbEntity
  8
MSR1-0
100
AcDbLine
 10
-28.30000000000005
 20
-103.810846643108
 30
0.0
 11
-28.30000000000005
 21
-133.810846643108
 31
0.0
  0
LINE
  5
1724
330
16C3
100
AcDbEntity
  8
MSR1-0
100
AcDbLine
 10
-29.30000000000005
 20
-103.810846643108
 30
0.0
 11
-29.30000000000005
 21
-133.810846643108
 31
0.0
  0
LINE
  5
1725
330
16C3
100
AcDbEntity
  8
MSR1-0
100
AcDbLine
 10
-21.30000000000004
 20
-103.810846643108
 30
0.0
 11
-21.30000000000004
 21
-133.810846643108
 31
0.0
  0
LINE
  5
1726
330
16C3
100
AcDbEntity
  8
MSR1-0
100
AcDbLine
 10
-42.30000000000005
 20
-131.810846643108
 30
0.0
 11
-42.30000000000005
 21
-123.810846643108
 31
0.0
  0
POLYLINE
  5
1727
330
16C3
100
AcDbEntity
  8
MSR1-0
100
AcDb2dPolyline
 66
     1
 10
0.0
 20
0.0
 30
0.0
 70
     1
  0
VERTEX
  5
1728
330
1727
100
AcDbEntity
  8
MSR1-0
100
AcDbVertex
100
AcDb2dVertex
 10
-42.30000000000005
 20
-131.810846643108
 30
0.0
  0
VERTEX
  5
1729
330
1727
100
AcDbEntity
  8
MSR1-0
100
AcDbVertex
100
AcDb2dVertex
 10
-49.80000000000005
 20
-131.810846643108
 30
0.0
  0
VERTEX
  5
172A
330
1727
100
AcDbEntity
  8
MSR1-0
100
AcDbVertex
100
AcDb2dVertex
 10
-49.80000000000005
 20
-123.810846643108
 30
0.0
  0
VERTEX
  5
172B
330
1727
100
AcDbEntity
  8
MSR1-0
100
AcDbVertex
100
AcDb2dVertex
 10
-42.30000000000005
 20
-123.810846643108
 30
0.0
  0
VERTEX
  5
172C
330
1727
100
AcDbEntity
  8
MSR1-0
100
AcDbVertex
100
AcDb2dVertex
 10
-42.30000000000005
 20
-123.310846643108
 30
0.0
  0
VERTEX
  5
172D
330
1727
100
AcDbEntity
  8
MSR1-0
100
AcDbVertex
100
AcDb2dVertex
 10
-35.80000000000005
 20
-123.310846643108
 30
0.0
  0
VERTEX
  5
172E
330
1727
100
AcDbEntity
  8
MSR1-0
100
AcDbVertex
100
AcDb2dVertex
 10
-35.80000000000005
 20
-132.310846643108
 30
0.0
  0
VERTEX
  5
172F
330
1727
100
AcDbEntity
  8
MSR1-0
100
AcDbVertex
100
AcDb2dVertex
 10
-42.30000000000005
 20
-132.310846643108
 30
0.0
  0
VERTEX
  5
1730
330
1727
100
AcDbEntity
  8
MSR1-0
100
AcDbVertex
100
AcDb2dVertex
 10
-42.30000000000005
 20
-131.810846643108
 30
0.0
  0
SEQEND
  5
1731
330
1727
100
AcDbEntity
  8
MSR1-0
  0
LINE
  5
1732
330
16C3
100
AcDbEntity
  8
MSR1-0
100
AcDbLine
 10
-34.30000000000005
 20
-103.810846643108
 30
0.0
 11
-34.30000000000005
 21
-133.810846643108
 31
0.0
  0
POLYLINE
  5
1733
330
16C3
100
AcDbEntity
  8
MSR1-0
100
AcDb2dPolyline
 66
     1
 10
0.0
 20
0.0
 30
0.0
  0
VERTEX
  5
1734
330
1733
100
AcDbEntity
  8
MSR1-0
100
AcDbVertex
100
AcDb2dVertex
 10
-15.00000000000003
 20
-103.810846643108
 30
0.0
  0
VERTEX
  5
1735
330
1733
100
AcDbEntity
  8
MSR1-0
100
AcDbVertex
100
AcDb2dVertex
 10
-35.80000000000005
 20
-103.810846643108
 30
0.0
  0
VERTEX
  5
1736
330
1733
100
AcDbEntity
  8
MSR1-0
100
AcDbVertex
100
AcDb2dVertex
 10
-35.80000000000005
 20
-133.810846643108
 30
0.0
  0
VERTEX
  5
1737
330
1733
100
AcDbEntity
  8
MSR1-0
100
AcDbVertex
100
AcDb2dVertex
 10
-15.00000000000003
 20
-133.810846643108
 30
0.0
  0
SEQEND
  5
1738
330
1733
100
AcDbEntity
  8
MSR1-0
  0
POLYLINE
  5
1739
330
16C3
100
AcDbEntity
  8
MSR1-0
100
AcDb2dPolyline
 66
     1
 10
0.0
 20
0.0
 30
0.0
  0
VERTEX
  5
173A
330
1739
100
AcDbEntity
  8
MSR1-0
100
AcDbVertex
100
AcDb2dVertex
 10
-39.80000000000006
 20
-132.310846643108
 30
0.0
  0
VERTEX
  5
173B
330
1739
100
AcDbEntity
  8
MSR1-0
100
AcDbVertex
100
AcDb2dVertex
 10
-39.80000000000006
 20
-133.310846643108
 30
0.0
  0
VERTEX
  5
173C
330
1739
100
AcDbEntity
  8
MSR1-0
100
AcDbVertex
100
AcDb2dVertex
 10
-35.80000000000005
 20
-133.310846643108
 30
0.0
  0
SEQEND
  5
173D
330
1739
100
AcDbEntity
  8
MSR1-0
  0
LINE
  5
173E
330
16C3
100
AcDbEntity
  8
MSR1-4
100
AcDbLine
 10
-39.18461600000006
 20
-132.310846643108
 30
0.0
 11
-39.80000000000006
 21
-133.310846643108
 31
0.0
  0
LINE
  5
173F
330
16C3
100
AcDbEntity
  8
MSR1-4
100
AcDbLine
 10
-36.41538500000006
 20
-132.310846643108
 30
0.0
 11
-35.80000000000005
 21
-133.310846643108
 31
0.0
  0
TEXT
  5
1740
330
16C3
100
AcDbEntity
  8
MSR1-6
100
AcDbText
 10
-33.97609137142647
 20
-81.52419381178335
 30
0.0
 40
2.0
  1
MSR1
100
AcDbText
  0
LINE
  5
1741
330
16C3
100
AcDbEntity
  8
MSR1-3
100
AcDbLine
 10
-34.30000000000005
 20
-112.810846643108
 30
0.0
 11
-29.30000000000005
 21
-112.810846643108
 31
0.0
  0
LINE
  5
1742
330
16C3
100
AcDbEntity
  8
MSR1-3
100
AcDbLine
 10
-34.30000000000005
 20
-112.310846643108
 30
0.0
 11
-29.30000000000005
 21
-112.310846643108
 31
0.0
  0
LINE
  5
1743
330
16C3
100
AcDbEntity
  8
MSR1-3
100
AcDbLine
 10
-34.30000000000005
 20
-106.810846643108
 30
0.0
 11
-29.30000000000005
 21
-106.810846643108
 31
0.0
  0
LINE
  5
1744
330
16C3
100
AcDbEntity
  8
MSR1-3
100
AcDbLine
 10
-34.30000000000005
 20
-107.310846643108
 30
0.0
 11
-29.30000000000005
 21
-107.310846643108
 31
0.0
  0
LINE
  5
1745
330
16C3
100
AcDbEntity
  8
MSR1-3
100
AcDbLine
 10
-34.30000000000005
 20
-125.310846643108
 30
0.0
 11
-29.30000000000005
 21
-125.310846643108
 31
0.0
  0
LINE
  5
1746
330
16C3
100
AcDbEntity
  8
MSR1-3
100
AcDbLine
 10
-34.30000000000005
 20
-124.810846643108
 30
0.0
 11
-29.30000000000005
 21
-124.810846643108
 31
0.0
  0
LINE
  5
1747
330
16C3
100
AcDbEntity
  8
MSR1-3
100
AcDbLine
 10
-34.30000000000005
 20
-130.810846643108
 30
0.0
 11
-29.30000000000005
 21
-130.810846643108
 31
0.0
  0
LINE
  5
1748
330
16C3
100
AcDbEntity
  8
MSR1-3
100
AcDbLine
 10
-34.30000000000005
 20
-130.310846643108
 30
0.0
 11
-29.30000000000005
 21
-130.310846643108
 31
0.0
  0
LINE
  5
1749
330
16C3
100
AcDbEntity
  8
MSR1-7
100
AcDbLine
 10
-52.92175500000005
 20
-127.810846643108
 30
0.0
 11
-13.73191100000005
 21
-127.810846643108
 31
0.0
  0
LINE
  5
174A
330
16C3
100
AcDbEntity
  8
MSR1-7
100
AcDbLine
 10
-52.92175500000005
 20
-109.810846643108
 30
0.0
 11
-13.73191100000005
 21
-109.810846643108
 31
0.0
  0
LINE
  5
174B
330
16C3
100
AcDbEntity
  8
MSR1-4
100
AcDbLine
 10
-49.80000000000005
 20
-109.810846643108
 30
0.0
 11
-42.30000000000005
 21
-105.810846643108
 31
0.0
  0
LINE
  5
174C
330
16C3
100
AcDbEntity
  8
MSR1-4
100
AcDbLine
 10
-49.80000000000005
 20
-105.810846643108
 30
0.0
 11
-42.30000000000005
 21
-109.810846643108
 31
0.0
  0
LINE
  5
174D
330
16C3
100
AcDbEntity
  8
MSR1-0
100
AcDbLine
 10
-49.80000000000005
 20
-109.810846643108
 30
0.0
 11
-42.30000000000005
 21
-109.810846643108
 31
0.0
  0
LINE
  5
174E
330
16C3
100
AcDbEntity
  8
MSR1-4
100
AcDbLine
 10
-42.30000000000005
 20
-109.810846643108
 30
0.0
 11
-49.80000000000005
 21
-113.810846643108
 31
0.0
  0
LINE
  5
174F
330
16C3
100
AcDbEntity
  8
MSR1-4
100
AcDbLine
 10
-49.80000000000005
 20
-109.810846643108
 30
0.0
 11
-42.30000000000005
 21
-113.810846643108
 31
0.0
  0
POLYLINE
  5
1750
330
16C3
100
AcDbEntity
  8
MSR1-0
100
AcDb2dPolyline
 66
     1
 10
0.0
 20
0.0
 30
0.0
 70
     1
  0
VERTEX
  5
1751
330
1750
100
AcDbEntity
  8
MSR1-0
100
AcDbVertex
100
AcDb2dVertex
 10
-42.30000000000005
 20
-113.810846643108
 30
0.0
  0
VERTEX
  5
1752
330
1750
100
AcDbEntity
  8
MSR1-0
100
AcDbVertex
100
AcDb2dVertex
 10
-49.80000000000005
 20
-113.810846643108
 30
0.0
  0
VERTEX
  5
1753
330
1750
100
AcDbEntity
  8
MSR1-0
100
AcDbVertex
100
AcDb2dVertex
 10
-49.80000000000005
 20
-105.810846643108
 30
0.0
  0
VERTEX
  5
1754
330
1750
100
AcDbEntity
  8
MSR1-0
100
AcDbVertex
100
AcDb2dVertex
 10
-42.30000000000005
 20
-105.810846643108
 30
0.0
  0
VERTEX
  5
1755
330
1750
100
AcDbEntity
  8
MSR1-0
100
AcDbVertex
100
AcDb2dVertex
 10
-42.30000000000005
 20
-105.310846643108
 30
0.0
  0
VERTEX
  5
1756
330
1750
100
AcDbEntity
  8
MSR1-0
100
AcDbVertex
100
AcDb2dVertex
 10
-35.80000000000005
 20
-105.310846643108
 30
0.0
  0
VERTEX
  5
1757
330
1750
100
AcDbEntity
  8
MSR1-0
100
AcDbVertex
100
AcDb2dVertex
 10
-35.80000000000005
 20
-114.310846643108
 30
0.0
  0
VERTEX
  5
1758
330
1750
100
AcDbEntity
  8
MSR1-0
100
AcDbVertex
100
AcDb2dVertex
 10
-42.30000000000005
 20
-114.310846643108
 30
0.0
  0
VERTEX
  5
1759
330
1750
100
AcDbEntity
  8
MSR1-0
100
AcDbVertex
100
AcDb2dVertex
 10
-42.30000000000005
 20
-113.810846643108
 30
0.0
  0
SEQEND
  5
175A
330
1750
100
AcDbEntity
  8
MSR1-0
  0
LINE
  5
175B
330
16C3
100
AcDbEntity
  8
MSR1-0
100
AcDbLine
 10
-49.80000000000005
 20
-127.810846643108
 30
0.0
 11
-42.30000000000005
 21
-127.810846643108
 31
0.0
  0
LINE
  5
175C
330
16C3
100
AcDbEntity
  8
MSR1-4
100
AcDbLine
 10
-49.80000000000005
 20
-123.810846643108
 30
0.0
 11
-42.30000000000005
 21
-127.810846643108
 31
0.0
  0
LINE
  5
175D
330
16C3
100
AcDbEntity
  8
MSR1-4
100
AcDbLine
 10
-49.80000000000005
 20
-127.810846643108
 30
0.0
 11
-42.30000000000005
 21
-123.810846643108
 31
0.0
  0
LINE
  5
175E
330
16C3
100
AcDbEntity
  8
MSR1-0
100
AcDbLine
 10
-42.30000000000005
 20
-113.810846643108
 30
0.0
 11
-42.30000000000005
 21
-105.810846643108
 31
0.0
  0
LINE
  5
175F
330
16C3
100
AcDbEntity
  8
MSR1-4
100
AcDbLine
 10
-39.80000000000006
 20
-120.310846643108
 30
0.0
 11
-37.95384600000007
 21
-123.310846643108
 31
0.0
  0
LINE
  5
1760
330
16C3
100
AcDbEntity
  8
MSR1-4
100
AcDbLine
 10
-37.95384600000007
 20
-114.310846643108
 30
0.0
 11
-39.80000000000006
 21
-117.310846643108
 31
0.0
  0
POLYLINE
  5
1761
330
16C3
100
AcDbEntity
  8
MSR1-0
100
AcDb2dPolyline
 66
     1
 10
0.0
 20
0.0
 30
0.0
  0
VERTEX
  5
1762
330
1761
100
AcDbEntity
  8
MSR1-0
100
AcDbVertex
100
AcDb2dVertex
 10
-35.80000000000005
 20
-120.310846643108
 30
0.0
  0
VERTEX
  5
1763
330
1761
100
AcDbEntity
  8
MSR1-0
100
AcDbVertex
100
AcDb2dVertex
 10
-39.80000000000006
 20
-120.310846643108
 30
0.0
  0
VERTEX
  5
1764
330
1761
100
AcDbEntity
  8
MSR1-0
100
AcDbVertex
100
AcDb2dVertex
 10
-39.80000000000006
 20
-123.310846643108
 30
0.0
  0
SEQEND
  5
1765
330
1761
100
AcDbEntity
  8
MSR1-0
  0
POLYLINE
  5
1766
330
16C3
100
AcDbEntity
  8
MSR1-0
100
AcDb2dPolyline
 66
     1
 10
0.0
 20
0.0
 30
0.0
  0
VERTEX
  5
1767
330
1766
100
AcDbEntity
  8
MSR1-0
100
AcDbVertex
100
AcDb2dVertex
 10
-39.80000000000006
 20
-114.310846643108
 30
0.0
  0
VERTEX
  5
1768
330
1766
100
AcDbEntity
  8
MSR1-0
100
AcDbVertex
100
AcDb2dVertex
 10
-39.80000000000006
 20
-117.310846643108
 30
0.0
  0
VERTEX
  5
1769
330
1766
100
AcDbEntity
  8
MSR1-0
100
AcDbVertex
100
AcDb2dVertex
 10
-35.80000000000005
 20
-117.310846643108
 30
0.0
  0
SEQEND
  5
176A
330
1766
100
AcDbEntity
  8
MSR1-0
  0
LINE
  5
176B
330
16C3
100
AcDbEntity
  8
MSR1-4
100
AcDbLine
 10
-35.80000000000005
 20
-120.310846643108
 30
0.0
 11
-37.64615400000006
 21
-123.310846643108
 31
0.0
  0
LINE
  5
176C
330
16C3
100
AcDbEntity
  8
MSR1-4
100
AcDbLine
 10
-35.80000000000005
 20
-124.810846643108
 30
0.0
 11
-34.30000000000005
 21
-124.810846643108
 31
0.0
  0
LINE
  5
176D
330
16C3
100
AcDbEntity
  8
MSR1-0
100
AcDbLine
 10
-35.80000000000005
 20
-125.310846643108
 30
0.0
 11
-34.30000000000005
 21
-125.310846643108
 31
0.0
  0
LINE
  5
176E
330
16C3
100
AcDbEntity
  8
MSR1-4
100
AcDbLine
 10
-35.80000000000005
 20
-130.810846643108
 30
0.0
 11
-34.30000000000005
 21
-130.810846643108
 31
0.0
  0
LINE
  5
176F
330
16C3
100
AcDbEntity
  8
MSR1-0
100
AcDbLine
 10
-35.80000000000005
 20
-130.310846643108
 30
0.0
 11
-34.30000000000005
 21
-130.310846643108
 31
0.0
  0
LINE
  5
1770
330
16C3
100
AcDbEntity
  8
MSR1-4
100
AcDbLine
 10
-35.80000000000005
 20
-112.810846643108
 30
0.0
 11
-34.30000000000005
 21
-112.810846643108
 31
0.0
  0
LINE
  5
1771
330
16C3
100
AcDbEntity
  8
MSR1-0
100
AcDbLine
 10
-35.80000000000005
 20
-112.310846643108
 30
0.0
 11
-34.30000000000005
 21
-112.310846643108
 31
0.0
  0
LINE
  5
1772
330
16C3
100
AcDbEntity
  8
MSR1-4
100
AcDbLine
 10
-37.64615400000006
 20
-114.310846643108
 30
0.0
 11
-35.80000000000005
 21
-117.310846643108
 31
0.0
  0
POLYLINE
  5
1773
330
16C3
100
AcDbEntity
  8
MSR1-0
100
AcDb2dPolyline
 66
     1
 10
0.0
 20
0.0
 30
0.0
  0
VERTEX
  5
1774
330
1773
100
AcDbEntity
  8
MSR1-0
100
AcDbVertex
100
AcDb2dVertex
 10
-35.80000000000005
 20
-104.310846643108
 30
0.0
  0
VERTEX
  5
1775
330
1773
100
AcDbEntity
  8
MSR1-0
100
AcDbVertex
100
AcDb2dVertex
 10
-39.80000000000006
 20
-104.310846643108
 30
0.0
  0
VERTEX
  5
1776
330
1773
100
AcDbEntity
  8
MSR1-0
100
AcDbVertex
100
AcDb2dVertex
 10
-39.80000000000006
 20
-105.310846643108
 30
0.0
  0
SEQEND
  5
1777
330
1773
100
AcDbEntity
  8
MSR1-0
  0
LINE
  5
1778
330
16C3
100
AcDbEntity
  8
MSR1-4
100
AcDbLine
 10
-39.80000000000006
 20
-104.310846643108
 30
0.0
 11
-39.18461600000006
 21
-105.310846643108
 31
0.0
  0
LINE
  5
1779
330
16C3
100
AcDbEntity
  8
MSR1-4
100
AcDbLine
 10
-35.80000000000005
 20
-106.810846643108
 30
0.0
 11
-34.30000000000005
 21
-106.810846643108
 31
0.0
  0
LINE
  5
177A
330
16C3
100
AcDbEntity
  8
MSR1-0
100
AcDbLine
 10
-35.80000000000005
 20
-107.310846643108
 30
0.0
 11
-34.30000000000005
 21
-107.310846643108
 31
0.0
  0
LINE
  5
177B
330
16C3
100
AcDbEntity
  8
MSR1-4
100
AcDbLine
 10
-36.41538500000006
 20
-105.310846643108
 30
0.0
 11
-35.80000000000005
 21
-104.310846643108
 31
0.0
  0
LINE
  5
177C
330
16C3
100
AcDbEntity
  8
MSR1-0
100
AcDbLine
 10
-39.80000000000006
 20
-59.85709367838532
 30
0.0
 11
-35.80000000000005
 21
-59.85709367838532
 31
0.0
  0
LINE
  5
177D
330
16C3
100
AcDbEntity
  8
MSR1-4
100
AcDbLine
 10
-35.80000000000005
 20
-59.85709367838532
 30
0.0
 11
-39.80000000000006
 21
-66.35709367838533
 31
0.0
  0
LINE
  5
177E
330
16C3
100
AcDbEntity
  8
MSR1-4
100
AcDbLine
 10
-39.80000000000006
 20
-59.85709367838532
 30
0.0
 11
-35.80000000000005
 21
-66.35709367838533
 31
0.0
  0
LINE
  5
177F
330
16C3
100
AcDbEntity
  8
MSR1-4
100
AcDbLine
 10
-21.30000000000004
 20
-106.810846643108
 30
0.0
 11
-15.00000000000003
 21
-106.810846643108
 31
0.0
  0
LINE
  5
1780
330
16C3
100
AcDbEntity
  8
MSR1-0
100
AcDbLine
 10
-21.30000000000004
 20
-107.310846643108
 30
0.0
 11
-15.00000000000003
 21
-107.310846643108
 31
0.0
  0
LINE
  5
1781
330
16C3
100
AcDbEntity
  8
MSR1-4
100
AcDbLine
 10
-21.30000000000004
 20
-130.810846643108
 30
0.0
 11
-15.00000000000003
 21
-130.810846643108
 31
0.0
  0
LINE
  5
1782
330
16C3
100
AcDbEntity
  8
MSR1-0
100
AcDbLine
 10
-21.30000000000004
 20
-130.310846643108
 30
0.0
 11
-15.00000000000003
 21
-130.310846643108
 31
0.0
  0
LINE
  5
1783
330
16C3
100
AcDbEntity
  8
MSR1-0
100
AcDbLine
 10
-21.27493700000005
 20
-125.310846643108
 30
0.0
 11
-15.00000000000003
 21
-125.310846643108
 31
0.0
  0
LINE
  5
1784
330
16C3
100
AcDbEntity
  8
MSR1-4
100
AcDbLine
 10
-21.30000000000004
 20
-124.810846643108
 30
0.0
 11
-15.00000000000003
 21
-124.810846643108
 31
0.0
  0
LINE
  5
1785
330
16C3
100
AcDbEntity
  8
MSR1-4
100
AcDbLine
 10
-21.30000000000004
 20
-112.810846643108
 30
0.0
 11
-15.00000000000003
 21
-112.810846643108
 31
0.0
  0
LINE
  5
1786
330
16C3
100
AcDbEntity
  8
MSR1-0
100
AcDbLine
 10
-21.27493700000005
 20
-112.310846643108
 30
0.0
 11
-15.00000000000003
 21
-112.310846643108
 31
0.0
  0
LINE
  5
1787
330
16C3
100
AcDbEntity
  8
MSR1-3
100
AcDbLine
 10
-28.30000000000005
 20
-124.810846643108
 30
0.0
 11
-21.30000000000004
 21
-124.810846643108
 31
0.0
  0
LINE
  5
1788
330
16C3
100
AcDbEntity
  8
MSR1-3
100
AcDbLine
 10
-28.30000000000005
 20
-112.810846643108
 30
0.0
 11
-21.19898000000006
 21
-112.810846643108
 31
0.0
  0
LINE
  5
1789
330
16C3
100
AcDbEntity
  8
MSR1-3
100
AcDbLine
 10
-28.30000000000005
 20
-112.310846643108
 30
0.0
 11
-21.27493700000005
 21
-112.310846643108
 31
0.0
  0
LINE
  5
178A
330
16C3
100
AcDbEntity
  8
MSR1-3
100
AcDbLine
 10
-28.30000000000005
 20
-125.310846643108
 30
0.0
 11
-21.30000000000004
 21
-125.310846643108
 31
0.0
  0
LINE
  5
178B
330
16C3
100
AcDbEntity
  8
MSR1-3
100
AcDbLine
 10
-28.30000000000005
 20
-130.810846643108
 30
0.0
 11
-21.19898000000006
 21
-130.810846643108
 31
0.0
  0
LINE
  5
178C
330
16C3
100
AcDbEntity
  8
MSR1-3
100
AcDbLine
 10
-28.30000000000005
 20
-130.310846643108
 30
0.0
 11
-21.27493700000005
 21
-130.310846643108
 31
0.0
  0
LINE
  5
178D
330
16C3
100
AcDbEntity
  8
MSR1-4
100
AcDbLine
 10
-29.30000000000005
 20
-130.810846643108
 30
0.0
 11
-28.30000000000005
 21
-130.810846643108
 31
0.0
  0
LINE
  5
178E
330
16C3
100
AcDbEntity
  8
MSR1-0
100
AcDbLine
 10
-29.30000000000005
 20
-130.310846643108
 30
0.0
 11
-28.30000000000005
 21
-130.310846643108
 31
0.0
  0
LINE
  5
178F
330
16C3
100
AcDbEntity
  8
MSR1-4
100
AcDbLine
 10
-29.30000000000005
 20
-124.810846643108
 30
0.0
 11
-28.30000000000005
 21
-124.810846643108
 31
0.0
  0
LINE
  5
1790
330
16C3
100
AcDbEntity
  8
MSR1-0
100
AcDbLine
 10
-29.30000000000005
 20
-125.310846643108
 30
0.0
 11
-28.30000000000005
 21
-125.310846643108
 31
0.0
  0
LINE
  5
1791
330
16C3
100
AcDbEntity
  8
MSR1-4
100
AcDbLine
 10
-29.30000000000005
 20
-112.810846643108
 30
0.0
 11
-28.30000000000005
 21
-112.810846643108
 31
0.0
  0
LINE
  5
1792
330
16C3
100
AcDbEntity
  8
MSR1-0
100
AcDbLine
 10
-29.30000000000005
 20
-112.310846643108
 30
0.0
 11
-28.30000000000005
 21
-112.310846643108
 31
0.0
  0
LINE
  5
1793
330
16C3
100
AcDbEntity
  8
MSR1-3
100
AcDbLine
 10
-28.30000000000005
 20
-106.810846643108
 30
0.0
 11
-21.30000000000004
 21
-106.810846643108
 31
0.0
  0
LINE
  5
1794
330
16C3
100
AcDbEntity
  8
MSR1-3
100
AcDbLine
 10
-28.30000000000005
 20
-107.310846643108
 30
0.0
 11
-21.30000000000004
 21
-107.310846643108
 31
0.0
  0
LINE
  5
1795
330
16C3
100
AcDbEntity
  8
MSR1-0
100
AcDbLine
 10
-29.30000000000005
 20
-107.310846643108
 30
0.0
 11
-28.30000000000005
 21
-107.310846643108
 31
0.0
  0
LINE
  5
1796
330
16C3
100
AcDbEntity
  8
MSR1-4
100
AcDbLine
 10
-29.30000000000005
 20
-106.810846643108
 30
0.0
 11
-28.30000000000005
 21
-106.810846643108
 31
0.0
  0
LINE
  5
1797
330
16C3
100
AcDbEntity
  8
MSR1-7
100
AcDbLine
 10
-11.00000000000003
 20
-103.2057696431081
 30
0.0
 11
-11.00000000000003
 21
-112.075925643108
 31
0.0
  0
LINE
  5
1798
330
16C3
100
AcDbEntity
  8
MSR1-7
100
AcDbLine
 10
-15.33537100000006
 20
-129.810846643108
 30
0.0
 11
-6.703340000000054
 21
-129.810846643108
 31
0.0
  0
LINE
  5
1799
330
16C3
100
AcDbEntity
  8
MSR1-7
100
AcDbLine
 10
-15.33537100000006
 20
-107.810846643108
 30
0.0
 11
-6.703340000000054
 21
-107.810846643108
 31
0.0
  0
ARC
  5
179A
330
16C3
100
AcDbEntity
  8
MSR1-4
100
AcDbCircle
 10
-11.00000000000003
 20
-107.810846643108
 30
0.0
 40
2.5
100
AcDbArc
 50
89.999999
 51
0.0
  0
CIRCLE
  5
179B
330
16C3
100
AcDbEntity
  8
MSR1-0
100
AcDbCircle
 10
-11.00000000000003
 20
-107.810846643108
 30
0.0
 40
2.1
  0
CIRCLE
  5
179C
330
16C3
100
AcDbEntity
  8
MSR1-0
100
AcDbCircle
 10
-11.00000000000003
 20
-107.810846643108
 30
0.0
 40
3.5
  0
LINE
  5
179D
330
16C3
100
AcDbEntity
  8
MSR1-7
100
AcDbLine
 10
-22.95438300000004
 20
-63.37264867838531
 30
0.0
 11
-17.00000000000003
 21
-63.37264867838531
 31
0.0
  0
CIRCLE
  5
179E
330
16C3
100
AcDbEntity
  8
MSR1-0
100
AcDbCircle
 10
-19.50000000000003
 20
-63.37264867838531
 30
0.0
 40
2.1
  0
ARC
  5
179F
330
16C3
100
AcDbEntity
  8
MSR1-4
100
AcDbCircle
 10
-19.50000000000003
 20
-63.37264867838531
 30
0.0
 40
2.5
100
AcDbArc
 50
89.999999
 51
0.0
  0
LINE
  5
17A0
330
16C3
100
AcDbEntity
  8
MSR1-7
100
AcDbLine
 10
-19.50000000000003
 20
-59.54530267838531
 30
0.0
 11
-19.50000000000003
 21
-66.76842767838531
 31
0.0
  0
LINE
  5
17A1
330
16C3
100
AcDbEntity
  8
MSR1-7
100
AcDbLine
 10
-10.00000000000003
 20
-71.78320067838531
 30
0.0
 11
-10.00000000000003
 21
-86.0501656783853
 31
0.0
  0
LINE
  5
17A2
330
16C3
100
AcDbEntity
  8
MSR1-3
100
AcDbLine
 10
-8.350000000000051
 20
-73.35709367838531
 30
0.0
 11
-8.350000000000051
 21
-83.3570936783853
 31
0.0
  0
LINE
  5
17A3
330
16C3
100
AcDbEntity
  8
MSR1-3
100
AcDbLine
 10
-8.000000000000028
 20
-73.35709367838531
 30
0.0
 11
-8.000000000000028
 21
-83.3570936783853
 31
0.0
  0
LINE
  5
17A4
330
16C3
100
AcDbEntity
  8
MSR1-3
100
AcDbLine
 10
-11.65000000000003
 20
-73.35709367838531
 30
0.0
 11
-11.65000000000003
 21
-83.3570936783853
 31
0.0
  0
LINE
  5
17A5
330
16C3
100
AcDbEntity
  8
MSR1-3
100
AcDbLine
 10
-12.00000000000003
 20
-73.35709367838531
 30
0.0
 11
-12.00000000000003
 21
-83.3570936783853
 31
0.0
  0
LINE
  5
17A6
330
16C3
100
AcDbEntity
  8
MSR1-7
100
AcDbLine
 10
-16.00000000000003
 20
-70.6010516783853
 30
0.0
 11
-16.00000000000003
 21
-86.0501656783853
 31
0.0
  0
LINE
  5
17A7
330
16C3
100
AcDbEntity
  8
MSR1-7
100
AcDbLine
 10
-10.95438300000003
 20
-66.57264867838531
 30
0.0
 11
-3.96938300000005
 21
-66.57264867838531
 31
0.0
  0
POLYLINE
  5
17A8
330
16C3
100
AcDbEntity
  8
MSR1-6
100
AcDb2dPolyline
 66
     1
 10
0.0
 20
0.0
 30
0.0
  0
VERTEX
  5
17A9
330
17A8
100
AcDbEntity
  8
MSR1-6
100
AcDbVertex
100
AcDb2dVertex
 10
-15.65659400000004
 20
-64.68991167838531
 30
0.0
  0
VERTEX
  5
17AA
330
17A8
100
AcDbEntity
  8
MSR1-6
100
AcDbVertex
100
AcDb2dVertex
 10
-15.65659400000004
 20
-62.30895967838532
 30
0.0
  0
VERTEX
  5
17AB
330
17A8
100
AcDbEntity
  8
MSR1-6
100
AcDbVertex
100
AcDb2dVertex
 10
-14.88278400000004
 20
-62.30895967838532
 30
0.0
  0
VERTEX
  5
17AC
330
17A8
100
AcDbEntity
  8
MSR1-6
100
AcDbVertex
100
AcDb2dVertex
 10
-14.64468900000006
 20
-62.36848367838532
 30
0.0
  0
VERTEX
  5
17AD
330
17A8
100
AcDbEntity
  8
MSR1-6
100
AcDbVertex
100
AcDb2dVertex
 10
-14.52564100000006
 20
-62.48753067838531
 30
0.0
  0
VERTEX
  5
17AE
330
17A8
100
AcDbEntity
  8
MSR1-6
100
AcDbVertex
100
AcDb2dVertex
 10
-14.40659400000004
 20
-62.72562567838531
 30
0.0
  0
VERTEX
  5
17AF
330
17A8
100
AcDbEntity
  8
MSR1-6
100
AcDbVertex
100
AcDb2dVertex
 10
-14.40659400000004
 20
-63.08276867838532
 30
0.0
  0
VERTEX
  5
17B0
330
17A8
100
AcDbEntity
  8
MSR1-6
100
AcDbVertex
100
AcDb2dVertex
 10
-14.52564100000006
 20
-63.32086467838532
 30
0.0
  0
VERTEX
  5
17B1
330
17A8
100
AcDbEntity
  8
MSR1-6
100
AcDbVertex
100
AcDb2dVertex
 10
-14.64468900000006
 20
-63.43991167838531
 30
0.0
  0
VERTEX
  5
17B2
330
17A8
100
AcDbEntity
  8
MSR1-6
100
AcDbVertex
100
AcDb2dVertex
 10
-14.88278400000004
 20
-63.49943567838531
 30
0.0
  0
SEQEND
  5
17B3
330
17A8
100
AcDbEntity
  8
MSR1-6
  0
POLYLINE
  5
17B4
330
16C3
100
AcDbEntity
  8
MSR1-6
100
AcDb2dPolyline
 66
     1
 10
0.0
 20
0.0
 30
0.0
  0
VERTEX
  5
17B5
330
17B4
100
AcDbEntity
  8
MSR1-6
100
AcDbVertex
100
AcDb2dVertex
 10
-15.65659400000004
 20
-63.49943567838531
 30
0.0
  0
VERTEX
  5
17B6
330
17B4
100
AcDbEntity
  8
MSR1-6
100
AcDbVertex
100
AcDb2dVertex
 10
-14.88278400000004
 20
-63.49943567838531
 30
0.0
  0
VERTEX
  5
17B7
330
17B4
100
AcDbEntity
  8
MSR1-6
100
AcDbVertex
100
AcDb2dVertex
 10
-14.64468900000006
 20
-63.55895967838532
 30
0.0
  0
VERTEX
  5
17B8
330
17B4
100
AcDbEntity
  8
MSR1-6
100
AcDbVertex
100
AcDb2dVertex
 10
-14.52564100000006
 20
-63.67800667838531
 30
0.0
  0
VERTEX
  5
17B9
330
17B4
100
AcDbEntity
  8
MSR1-6
100
AcDbVertex
100
AcDb2dVertex
 10
-14.40659400000004
 20
-63.91610267838531
 30
0.0
  0
VERTEX
  5
17BA
330
17B4
100
AcDbEntity
  8
MSR1-6
100
AcDbVertex
100
AcDb2dVertex
 10
-14.40659400000004
 20
-64.27324467838532
 30
0.0
  0
VERTEX
  5
17BB
330
17B4
100
AcDbEntity
  8
MSR1-6
100
AcDbVertex
100
AcDb2dVertex
 10
-14.52564100000006
 20
-64.51134067838532
 30
0.0
  0
VERTEX
  5
17BC
330
17B4
100
AcDbEntity
  8
MSR1-6
100
AcDbVertex
100
AcDb2dVertex
 10
-14.64468900000006
 20
-64.63038767838532
 30
0.0
  0
VERTEX
  5
17BD
330
17B4
100
AcDbEntity
  8
MSR1-6
100
AcDbVertex
100
AcDb2dVertex
 10
-14.88278400000004
 20
-64.68991167838531
 30
0.0
  0
VERTEX
  5
17BE
330
17B4
100
AcDbEntity
  8
MSR1-6
100
AcDbVertex
100
AcDb2dVertex
 10
-15.65659400000004
 20
-64.68991167838531
 30
0.0
  0
SEQEND
  5
17BF
330
17B4
100
AcDbEntity
  8
MSR1-6
  0
CIRCLE
  5
17C0
330
16C3
100
AcDbEntity
  8
MSR1-0
100
AcDbCircle
 10
-7.500000000000028
 20
-66.57264867838531
 30
0.0
 40
2.1
  0
ARC
  5
17C1
330
16C3
100
AcDbEntity
  8
MSR1-4
100
AcDbCircle
 10
-7.500000000000028
 20
-66.57264867838531
 30
0.0
 40
2.5
100
AcDbArc
 50
89.999999
 51
0.0
  0
LINE
  5
17C2
330
16C3
100
AcDbEntity
  8
MSR1-7
100
AcDbLine
 10
-7.300000000000039
 20
-62.74530267838532
 30
0.0
 11
-7.300000000000039
 21
-69.96842767838531
 31
0.0
  0
POLYLINE
  5
17C3
330
16C3
100
AcDbEntity
  8
MSR1-6
100
AcDb2dPolyline
 66
     1
 10
0.0
 20
0.0
 30
0.0
  0
VERTEX
  5
17C4
330
17C3
100
AcDbEntity
  8
MSR1-6
100
AcDbVertex
100
AcDb2dVertex
 10
-5.419838000000055
 20
-64.49248667838531
 30
0.0
  0
VERTEX
  5
17C5
330
17C3
100
AcDbEntity
  8
MSR1-6
100
AcDbVertex
100
AcDb2dVertex
 10
-4.76507600000005
 20
-62.11153467838531
 30
0.0
  0
VERTEX
  5
17C6
330
17C3
100
AcDbEntity
  8
MSR1-6
100
AcDbVertex
100
AcDb2dVertex
 10
-4.646028000000029
 20
-62.11153467838531
 30
0.0
  0
VERTEX
  5
17C7
330
17C3
100
AcDbEntity
  8
MSR1-6
100
AcDbVertex
100
AcDb2dVertex
 10
-3.991266000000052
 20
-64.49248667838531
 30
0.0
  0
SEQEND
  5
17C8
330
17C3
100
AcDbEntity
  8
MSR1-6
  0
LINE
  5
17C9
330
16C3
100
AcDbEntity
  8
MSR1-6
100
AcDbLine
 10
-5.181743000000039
 20
-63.65915367838531
 30
0.0
 11
-4.229362000000037
 21
-63.65915367838531
 31
0.0
  0
TEXT
  5
17CA
330
16C3
100
AcDbEntity
  8
MSR1-6
100
AcDbText
 10
16.82390862857355
 20
-131.9779467765061
 30
0.0
 40
2.0
  1
MSR1
100
AcDbText
  0
CIRCLE
  5
17CB
330
16C3
100
AcDbEntity
  8
MSR1-0
100
AcDbCircle
 10
10.99999999999997
 20
-129.810846643108
 30
0.0
 40
3.5
  0
ARC
  5
17CC
330
16C3
100
AcDbEntity
  8
MSR1-4
100
AcDbCircle
 10
10.99999999999997
 20
-129.810846643108
 30
0.0
 40
2.5
100
AcDbArc
 50
89.999999
 51
0.0
  0
CIRCLE
  5
17CD
330
16C3
100
AcDbEntity
  8
MSR1-0
100
AcDbCircle
 10
10.99999999999997
 20
-129.810846643108
 30
0.0
 40
2.1
  0
LINE
  5
17CE
330
16C3
100
AcDbEntity
  8
MSR1-7
100
AcDbLine
 10
10.99999999999997
 20
-125.2057696431081
 30
0.0
 11
10.99999999999997
 21
-134.075925643108
 31
0.0
  0
LINE
  5
17CF
330
16C3
100
AcDbEntity
  8
MSR1-7
100
AcDbLine
 10
-0.0000000000000284
 20
-100.8858956431081
 30
0.0
 11
0.1999999999999602
 21
-137.558152643108
 31
0.0
  0
POLYLINE
  5
17D0
330
16C3
100
AcDbEntity
  8
MSR1-0
100
AcDb2dPolyline
 66
     1
 10
0.0
 20
0.0
 30
0.0
  0
VERTEX
  5
17D1
330
17D0
100
AcDbEntity
  8
MSR1-0
100
AcDbVertex
100
AcDb2dVertex
 10
14.99999999999997
 20
-103.810846643108
 30
0.0
  0
VERTEX
  5
17D2
330
17D0
100
AcDbEntity
  8
MSR1-0
100
AcDbVertex
100
AcDb2dVertex
 10
30.19999999999996
 20
-103.810846643108
 30
0.0
  0
VERTEX
  5
17D3
330
17D0
100
AcDbEntity
  8
MSR1-0
100
AcDbVertex
100
AcDb2dVertex
 10
30.19999999999996
 20
-133.810846643108
 30
0.0
  0
VERTEX
  5
17D4
330
17D0
100
AcDbEntity
  8
MSR1-0
100
AcDbVertex
100
AcDb2dVertex
 10
14.99999999999997
 20
-133.810846643108
 30
0.0
  0
SEQEND
  5
17D5
330
17D0
100
AcDbEntity
  8
MSR1-0
  0
LINE
  5
17D6
330
16C3
100
AcDbEntity
  8
MSR1-7
100
AcDbLine
 10
6.664628999999933
 20
-107.810846643108
 30
0.0
 11
15.29665999999994
 21
-107.810846643108
 31
0.0
  0
ARC
  5
17D7
330
16C3
100
AcDbEntity
  8
MSR1-4
100
AcDbCircle
 10
10.99999999999997
 20
-107.810846643108
 30
0.0
 40
2.5
100
AcDbArc
 50
89.999999
 51
0.0
  0
CIRCLE
  5
17D8
330
16C3
100
AcDbEntity
  8
MSR1-0
100
AcDbCircle
 10
10.99999999999997
 20
-107.810846643108
 30
0.0
 40
2.1
  0
CIRCLE
  5
17D9
330
16C3
100
AcDbEntity
  8
MSR1-0
100
AcDbCircle
 10
10.99999999999997
 20
-107.810846643108
 30
0.0
 40
3.5
  0
LINE
  5
17DA
330
16C3
100
AcDbEntity
  8
MSR1-7
100
AcDbLine
 10
6.664628999999933
 20
-129.810846643108
 30
0.0
 11
15.29665999999994
 21
-129.810846643108
 31
0.0
  0
LINE
  5
17DB
330
16C3
100
AcDbEntity
  8
MSR1-7
100
AcDbLine
 10
10.99999999999997
 20
-103.2057696431081
 30
0.0
 11
10.99999999999997
 21
-112.075925643108
 31
0.0
  0
LINE
  5
17DC
330
16C3
100
AcDbEntity
  8
MSR1-3
100
AcDbLine
 10
-2.000000000000028
 20
-73.35709367838531
 30
0.0
 11
-2.000000000000028
 21
-83.3570936783853
 31
0.0
  0
LINE
  5
17DD
330
16C3
100
AcDbEntity
  8
MSR1-3
100
AcDbLine
 10
1.999999999999971
 20
-73.35709367838531
 30
0.0
 11
1.999999999999971
 21
-83.3570936783853
 31
0.0
  0
LINE
  5
17DE
330
16C3
100
AcDbEntity
  8
MSR1-3
100
AcDbLine
 10
8.349999999999965
 20
-73.35709367838531
 30
0.0
 11
8.349999999999965
 21
-83.3570936783853
 31
0.0
  0
LINE
  5
17DF
330
16C3
100
AcDbEntity
  8
MSR1-3
100
AcDbLine
 10
7.999999999999971
 20
-73.35709367838531
 30
0.0
 11
7.999999999999971
 21
-83.3570936783853
 31
0.0
  0
LINE
  5
17E0
330
16C3
100
AcDbEntity
  8
MSR1-7
100
AcDbLine
 10
9.999999999999971
 20
-71.78320067838531
 30
0.0
 11
9.999999999999971
 21
-86.0501656783853
 31
0.0
  0
LINE
  5
17E1
330
16C3
100
AcDbEntity
  8
MSR1-7
100
AcDbLine
 10
15.99999999999997
 20
-70.6010516783853
 30
0.0
 11
15.99999999999997
 21
-86.0501656783853
 31
0.0
  0
LINE
  5
17E2
330
16C3
100
AcDbEntity
  8
MSR1-3
100
AcDbLine
 10
11.99999999999997
 20
-73.35709367838531
 30
0.0
 11
11.99999999999997
 21
-83.3570936783853
 31
0.0
  0
LINE
  5
17E3
330
16C3
100
AcDbEntity
  8
MSR1-3
100
AcDbLine
 10
11.64999999999995
 20
-73.35709367838531
 30
0.0
 11
11.64999999999995
 21
-83.3570936783853
 31
0.0
  0
LINE
  5
17E4
330
16C3
100
AcDbEntity
  8
MSR1-7
100
AcDbLine
 10
-3.696643000000022
 20
10.0
 30
0.0
 11
3.673892999999992
 21
10.0
 31
0.0
  0
LINE
  5
17E5
330
16C3
100
AcDbEntity
  8
MSR1-7
100
AcDbLine
 10
-3.696643000000022
 20
-10.0
 30
0.0
 11
3.56049999999999
 21
-10.0
 31
0.0
  0
POLYLINE
  5
17E6
330
16C3
100
AcDbEntity
  8
MSR1-0
100
AcDb2dPolyline
 66
     1
 10
0.0
 20
0.0
 30
0.0
 70
     1
  0
VERTEX
  5
17E7
330
17E6
100
AcDbEntity
  8
MSR1-0
100
AcDbVertex
100
AcDb2dVertex
 10
-15.00000000000003
 20
-35.35709367838533
 30
0.0
  0
VERTEX
  5
17E8
330
17E6
100
AcDbEntity
  8
MSR1-0
100
AcDbVertex
100
AcDb2dVertex
 10
14.99999999999997
 20
-35.35709367838533
 30
0.0
  0
VERTEX
  5
17E9
330
17E6
100
AcDbEntity
  8
MSR1-0
100
AcDbVertex
100
AcDb2dVertex
 10
14.99999999999997
 20
-30.35709367838533
 30
0.0
  0
VERTEX
  5
17EA
330
17E6
100
AcDbEntity
  8
MSR1-0
100
AcDbVertex
100
AcDb2dVertex
 10
-15.00000000000003
 20
-30.35709367838533
 30
0.0
  0
VERTEX
  5
17EB
330
17E6
100
AcDbEntity
  8
MSR1-0
100
AcDbVertex
100
AcDb2dVertex
 10
-15.00000000000003
 20
-35.35709367838533
 30
0.0
  0
SEQEND
  5
17EC
330
17E6
100
AcDbEntity
  8
MSR1-0
  0
CIRCLE
  5
17ED
330
16C3
100
AcDbEntity
  8
MSR1-0
100
AcDbCircle
 10
0.0
 20
0.0
 30
0.0
 40
4.5
  0
POLYLINE
  5
17EE
330
16C3
100
AcDbEntity
  8
MSR1-0
100
AcDb2dPolyline
 66
     1
 10
0.0
 20
0.0
 30
0.0
 70
     1
  0
VERTEX
  5
17EF
330
17EE
100
AcDbEntity
  8
MSR1-0
100
AcDbVertex
100
AcDb2dVertex
 10
-15.00000000000003
 20
-44.35709367838533
 30
0.0
  0
VERTEX
  5
17F0
330
17EE
100
AcDbEntity
  8
MSR1-0
100
AcDbVertex
100
AcDb2dVertex
 10
14.99999999999997
 20
-44.35709367838533
 30
0.0
  0
VERTEX
  5
17F1
330
17EE
100
AcDbEntity
  8
MSR1-0
100
AcDbVertex
100
AcDb2dVertex
 10
14.99999999999997
 20
-46.85709367838533
 30
0.0
  0
VERTEX
  5
17F2
330
17EE
100
AcDbEntity
  8
MSR1-0
100
AcDbVertex
100
AcDb2dVertex
 10
-15.00000000000003
 20
-46.85709367838533
 30
0.0
  0
VERTEX
  5
17F3
330
17EE
100
AcDbEntity
  8
MSR1-0
100
AcDbVertex
100
AcDb2dVertex
 10
-15.00000000000003
 20
-44.35709367838533
 30
0.0
  0
SEQEND
  5
17F4
330
17EE
100
AcDbEntity
  8
MSR1-0
  0
LINE
  5
17F5
330
16C3
100
AcDbEntity
  8
MSR1-7
100
AcDbLine
 10
-52.04134600000006
 20
-40.85709367838532
 30
0.0
 11
1.567306999999942
 21
-40.85709367838532
 31
0.0
  0
LINE
  5
17F6
330
16C3
100
AcDbEntity
  8
MSR1-0
100
AcDbLine
 10
-21.30000000000004
 20
-38.35709367838532
 30
0.0
 11
-1.800000000000039
 21
-38.35709367838532
 31
0.0
  0
LINE
  5
17F7
330
16C3
100
AcDbEntity
  8
MSR1-0
100
AcDbLine
 10
-21.27493700000005
 20
-43.35709367838532
 30
0.0
 11
-1.800000000000039
 21
-43.35709367838532
 31
0.0
  0
POLYLINE
  5
17F8
330
16C3
100
AcDbEntity
  8
MSR1-0
100
AcDb2dPolyline
 66
     1
 10
0.0
 20
0.0
 30
0.0
 70
     1
  0
VERTEX
  5
17F9
330
17F8
100
AcDbEntity
  8
MSR1-0
100
AcDbVertex
100
AcDb2dVertex
 10
-35.80000000000003
 20
15.0
 30
0.0
  0
VERTEX
  5
17FA
330
17F8
100
AcDbEntity
  8
MSR1-0
100
AcDbVertex
100
AcDb2dVertex
 10
30.19999999999999
 20
15.0
 30
0.0
  0
VERTEX
  5
17FB
330
17F8
100
AcDbEntity
  8
MSR1-0
100
AcDbVertex
100
AcDb2dVertex
 10
30.19999999999999
 20
-15.0
 30
0.0
  0
VERTEX
  5
17FC
330
17F8
100
AcDbEntity
  8
MSR1-0
100
AcDbVertex
100
AcDb2dVertex
 10
-35.80000000000003
 20
-15.0
 30
0.0
  0
VERTEX
  5
17FD
330
17F8
100
AcDbEntity
  8
MSR1-0
100
AcDbVertex
100
AcDb2dVertex
 10
-35.80000000000003
 20
15.0
 30
0.0
  0
SEQEND
  5
17FE
330
17F8
100
AcDbEntity
  8
MSR1-0
  0
LINE
  5
17FF
330
16C3
100
AcDbEntity
  8
MSR1-7
100
AcDbLine
 10
-43.29753600000003
 20
0.0
 30
0.0
 11
31.68408199999996
 21
0.0
 31
0.0
  0
TEXT
  5
1800
330
16C3
100
AcDbEntity
  8
MSR1-6
100
AcDbText
 10
-33.97609137142644
 20
-13.16710013339803
 30
0.0
 40
2.0
  1
MSR1
100
AcDbText
  0
LINE
  5
1801
330
16C3
100
AcDbEntity
  8
MSR1-3
100
AcDbLine
 10
-34.30000000000005
 20
-37.85709367838533
 30
0.0
 11
-29.30000000000005
 21
-37.85709367838533
 31
0.0
  0
LINE
  5
1802
330
16C3
100
AcDbEntity
  8
MSR1-3
100
AcDbLine
 10
-34.30000000000005
 20
-38.35709367838532
 30
0.0
 11
-29.30000000000005
 21
-38.35709367838532
 31
0.0
  0
LINE
  5
1803
330
16C3
100
AcDbEntity
  8
MSR1-3
100
AcDbLine
 10
-34.30000000000005
 20
-43.35709367838532
 30
0.0
 11
-29.30000000000005
 21
-43.35709367838532
 31
0.0
  0
LINE
  5
1804
330
16C3
100
AcDbEntity
  8
MSR1-3
100
AcDbLine
 10
-34.30000000000005
 20
-43.85709367838532
 30
0.0
 11
-29.30000000000005
 21
-43.85709367838532
 31
0.0
  0
POLYLINE
  5
1805
330
16C3
100
AcDbEntity
  8
MSR1-0
100
AcDb2dPolyline
 66
     1
 10
0.0
 20
0.0
 30
0.0
 70
     1
  0
VERTEX
  5
1806
330
1805
100
AcDbEntity
  8
MSR1-0
100
AcDbVertex
100
AcDb2dVertex
 10
-34.30000000000005
 20
-36.85709367838533
 30
0.0
  0
VERTEX
  5
1807
330
1805
100
AcDbEntity
  8
MSR1-0
100
AcDbVertex
100
AcDb2dVertex
 10
-29.30000000000005
 20
-36.85709367838533
 30
0.0
  0
VERTEX
  5
1808
330
1805
100
AcDbEntity
  8
MSR1-0
100
AcDbVertex
100
AcDb2dVertex
 10
-29.30000000000005
 20
-46.85709367838533
 30
0.0
  0
VERTEX
  5
1809
330
1805
100
AcDbEntity
  8
MSR1-0
100
AcDbVertex
100
AcDb2dVertex
 10
-34.30000000000005
 20
-46.85709367838533
 30
0.0
  0
VERTEX
  5
180A
330
1805
100
AcDbEntity
  8
MSR1-0
100
AcDbVertex
100
AcDb2dVertex
 10
-34.30000000000005
 20
-36.85709367838533
 30
0.0
  0
SEQEND
  5
180B
330
1805
100
AcDbEntity
  8
MSR1-0
  0
LINE
  5
180C
330
16C3
100
AcDbEntity
  8
MSR1-4
100
AcDbLine
 10
-42.30000000000005
 20
-40.85709367838532
 30
0.0
 11
-49.80000000000005
 21
-44.85709367838532
 31
0.0
  0
LINE
  5
180D
330
16C3
100
AcDbEntity
  8
MSR1-4
100
AcDbLine
 10
-49.80000000000005
 20
-40.85709367838532
 30
0.0
 11
-42.30000000000005
 21
-44.85709367838532
 31
0.0
  0
POLYLINE
  5
180E
330
16C3
100
AcDbEntity
  8
MSR1-0
100
AcDb2dPolyline
 66
     1
 10
0.0
 20
0.0
 30
0.0
 70
     1
  0
VERTEX
  5
180F
330
180E
100
AcDbEntity
  8
MSR1-0
100
AcDbVertex
100
AcDb2dVertex
 10
-42.30000000000005
 20
-44.85709367838532
 30
0.0
  0
VERTEX
  5
1810
330
180E
100
AcDbEntity
  8
MSR1-0
100
AcDbVertex
100
AcDb2dVertex
 10
-49.80000000000005
 20
-44.85709367838532
 30
0.0
  0
VERTEX
  5
1811
330
180E
100
AcDbEntity
  8
MSR1-0
100
AcDbVertex
100
AcDb2dVertex
 10
-49.80000000000005
 20
-36.85709367838533
 30
0.0
  0
VERTEX
  5
1812
330
180E
100
AcDbEntity
  8
MSR1-0
100
AcDbVertex
100
AcDb2dVertex
 10
-42.30000000000005
 20
-36.85709367838533
 30
0.0
  0
VERTEX
  5
1813
330
180E
100
AcDbEntity
  8
MSR1-0
100
AcDbVertex
100
AcDb2dVertex
 10
-42.30000000000005
 20
-36.35709367838533
 30
0.0
  0
VERTEX
  5
1814
330
180E
100
AcDbEntity
  8
MSR1-0
100
AcDbVertex
100
AcDb2dVertex
 10
-35.80000000000005
 20
-36.35709367838533
 30
0.0
  0
VERTEX
  5
1815
330
180E
100
AcDbEntity
  8
MSR1-0
100
AcDbVertex
100
AcDb2dVertex
 10
-35.80000000000005
 20
-45.35709367838532
 30
0.0
  0
VERTEX
  5
1816
330
180E
100
AcDbEntity
  8
MSR1-0
100
AcDbVertex
100
AcDb2dVertex
 10
-42.30000000000005
 20
-45.35709367838532
 30
0.0
  0
VERTEX
  5
1817
330
180E
100
AcDbEntity
  8
MSR1-0
100
AcDbVertex
100
AcDb2dVertex
 10
-42.30000000000005
 20
-44.85709367838532
 30
0.0
  0
SEQEND
  5
1818
330
180E
100
AcDbEntity
  8
MSR1-0
  0
LINE
  5
1819
330
16C3
100
AcDbEntity
  8
MSR1-4
100
AcDbLine
 10
-49.80000000000005
 20
-40.85709367838532
 30
0.0
 11
-42.30000000000005
 21
-36.85709367838533
 31
0.0
  0
LINE
  5
181A
330
16C3
100
AcDbEntity
  8
MSR1-4
100
AcDbLine
 10
-49.80000000000005
 20
-36.85709367838533
 30
0.0
 11
-42.30000000000005
 21
-40.85709367838532
 31
0.0
  0
LINE
  5
181B
330
16C3
100
AcDbEntity
  8
MSR1-0
100
AcDbLine
 10
-42.30000000000005
 20
-44.85709367838532
 30
0.0
 11
-42.30000000000005
 21
-36.85709367838533
 31
0.0
  0
LINE
  5
181C
330
16C3
100
AcDbEntity
  8
MSR1-4
100
AcDbLine
 10
-35.80000000000005
 20
-37.85709367838533
 30
0.0
 11
-34.30000000000005
 21
-37.85709367838533
 31
0.0
  0
LINE
  5
181D
330
16C3
100
AcDbEntity
  8
MSR1-0
100
AcDbLine
 10
-35.80000000000005
 20
-38.35709367838532
 30
0.0
 11
-34.30000000000005
 21
-38.35709367838532
 31
0.0
  0
LINE
  5
181E
330
16C3
100
AcDbEntity
  8
MSR1-0
100
AcDbLine
 10
-35.80000000000005
 20
-43.35709367838532
 30
0.0
 11
-34.30000000000005
 21
-43.35709367838532
 31
0.0
  0
LINE
  5
181F
330
16C3
100
AcDbEntity
  8
MSR1-4
100
AcDbLine
 10
-35.80000000000005
 20
-43.85709367838532
 30
0.0
 11
-34.30000000000005
 21
-43.85709367838532
 31
0.0
  0
LINE
  5
1820
330
16C3
100
AcDbEntity
  8
MSR1-4
100
AcDbLine
 10
-49.80000000000003
 20
9.0
 30
0.0
 11
-42.30000000000003
 21
5.0
 31
0.0
  0
LINE
  5
1821
330
16C3
100
AcDbEntity
  8
MSR1-4
100
AcDbLine
 10
-42.30000000000003
 20
9.0
 30
0.0
 11
-49.80000000000003
 21
5.0
 31
0.0
  0
LINE
  5
1822
330
16C3
100
AcDbEntity
  8
MSR1-0
100
AcDbLine
 10
-49.80000000000003
 20
9.0
 30
0.0
 11
-42.30000000000003
 21
9.0
 31
0.0
  0
POLYLINE
  5
1823
330
16C3
100
AcDbEntity
  8
MSR1-0
100
AcDb2dPolyline
 66
     1
 10
0.0
 20
0.0
 30
0.0
 70
     1
  0
VERTEX
  5
1824
330
1823
100
AcDbEntity
  8
MSR1-0
100
AcDbVertex
100
AcDb2dVertex
 10
-42.30000000000003
 20
5.0
 30
0.0
  0
VERTEX
  5
1825
330
1823
100
AcDbEntity
  8
MSR1-0
100
AcDbVertex
100
AcDb2dVertex
 10
-49.80000000000003
 20
5.0
 30
0.0
  0
VERTEX
  5
1826
330
1823
100
AcDbEntity
  8
MSR1-0
100
AcDbVertex
100
AcDb2dVertex
 10
-49.80000000000003
 20
13.0
 30
0.0
  0
VERTEX
  5
1827
330
1823
100
AcDbEntity
  8
MSR1-0
100
AcDbVertex
100
AcDb2dVertex
 10
-42.30000000000003
 20
13.0
 30
0.0
  0
VERTEX
  5
1828
330
1823
100
AcDbEntity
  8
MSR1-0
100
AcDbVertex
100
AcDb2dVertex
 10
-42.30000000000003
 20
13.5
 30
0.0
  0
VERTEX
  5
1829
330
1823
100
AcDbEntity
  8
MSR1-0
100
AcDbVertex
100
AcDb2dVertex
 10
-39.80000000000003
 20
13.5
 30
0.0
  0
VERTEX
  5
182A
330
1823
100
AcDbEntity
  8
MSR1-0
100
AcDbVertex
100
AcDb2dVertex
 10
-39.80000000000003
 20
4.5
 30
0.0
  0
VERTEX
  5
182B
330
1823
100
AcDbEntity
  8
MSR1-0
100
AcDbVertex
100
AcDb2dVertex
 10
-42.30000000000003
 20
4.5
 30
0.0
  0
VERTEX
  5
182C
330
1823
100
AcDbEntity
  8
MSR1-0
100
AcDbVertex
100
AcDb2dVertex
 10
-42.30000000000003
 20
5.0
 30
0.0
  0
SEQEND
  5
182D
330
1823
100
AcDbEntity
  8
MSR1-0
  0
LINE
  5
182E
330
16C3
100
AcDbEntity
  8
MSR1-4
100
AcDbLine
 10
-49.80000000000003
 20
13.0
 30
0.0
 11
-42.30000000000003
 21
9.0
 31
0.0
  0
LINE
  5
182F
330
16C3
100
AcDbEntity
  8
MSR1-4
100
AcDbLine
 10
-49.80000000000003
 20
9.0
 30
0.0
 11
-42.30000000000003
 21
13.0
 31
0.0
  0
POLYLINE
  5
1830
330
16C3
100
AcDbEntity
  8
MSR1-0
100
AcDb2dPolyline
 66
     1
 10
0.0
 20
0.0
 30
0.0
 70
     1
  0
VERTEX
  5
1831
330
1830
100
AcDbEntity
  8
MSR1-0
100
AcDbVertex
100
AcDb2dVertex
 10
-42.30000000000003
 20
-13.0
 30
0.0
  0
VERTEX
  5
1832
330
1830
100
AcDbEntity
  8
MSR1-0
100
AcDbVertex
100
AcDb2dVertex
 10
-49.80000000000003
 20
-13.0
 30
0.0
  0
VERTEX
  5
1833
330
1830
100
AcDbEntity
  8
MSR1-0
100
AcDbVertex
100
AcDb2dVertex
 10
-49.80000000000003
 20
-5.0
 30
0.0
  0
VERTEX
  5
1834
330
1830
100
AcDbEntity
  8
MSR1-0
100
AcDbVertex
100
AcDb2dVertex
 10
-42.30000000000003
 20
-5.0
 30
0.0
  0
VERTEX
  5
1835
330
1830
100
AcDbEntity
  8
MSR1-0
100
AcDbVertex
100
AcDb2dVertex
 10
-42.30000000000003
 20
-4.5
 30
0.0
  0
VERTEX
  5
1836
330
1830
100
AcDbEntity
  8
MSR1-0
100
AcDbVertex
100
AcDb2dVertex
 10
-39.80000000000003
 20
-4.5
 30
0.0
  0
VERTEX
  5
1837
330
1830
100
AcDbEntity
  8
MSR1-0
100
AcDbVertex
100
AcDb2dVertex
 10
-39.80000000000003
 20
-13.5
 30
0.0
  0
VERTEX
  5
1838
330
1830
100
AcDbEntity
  8
MSR1-0
100
AcDbVertex
100
AcDb2dVertex
 10
-42.30000000000003
 20
-13.5
 30
0.0
  0
VERTEX
  5
1839
330
1830
100
AcDbEntity
  8
MSR1-0
100
AcDbVertex
100
AcDb2dVertex
 10
-42.30000000000003
 20
-13.0
 30
0.0
  0
SEQEND
  5
183A
330
1830
100
AcDbEntity
  8
MSR1-0
  0
LINE
  5
183B
330
16C3
100
AcDbEntity
  8
MSR1-4
100
AcDbLine
 10
-42.30000000000003
 20
-9.0
 30
0.0
 11
-49.80000000000003
 21
-13.0
 31
0.0
  0
LINE
  5
183C
330
16C3
100
AcDbEntity
  8
MSR1-4
100
AcDbLine
 10
-49.80000000000003
 20
-9.0
 30
0.0
 11
-42.30000000000003
 21
-13.0
 31
0.0
  0
LINE
  5
183D
330
16C3
100
AcDbEntity
  8
MSR1-4
100
AcDbLine
 10
-49.80000000000003
 20
-9.0
 30
0.0
 11
-42.30000000000003
 21
-5.0
 31
0.0
  0
LINE
  5
183E
330
16C3
100
AcDbEntity
  8
MSR1-4
100
AcDbLine
 10
-49.80000000000003
 20
-5.0
 30
0.0
 11
-42.30000000000003
 21
-9.0
 31
0.0
  0
LINE
  5
183F
330
16C3
100
AcDbEntity
  8
MSR1-0
100
AcDbLine
 10
-49.80000000000003
 20
-9.0
 30
0.0
 11
-42.30000000000003
 21
-9.0
 31
0.0
  0
LINE
  5
1840
330
16C3
100
AcDbEntity
  8
MSR1-7
100
AcDbLine
 10
-49.80000000000003
 20
-9.0
 30
0.0
 11
-53.16271500000003
 21
-9.0
 31
0.0
  0
LINE
  5
1841
330
16C3
100
AcDbEntity
  8
MSR1-7
100
AcDbLine
 10
-49.80000000000003
 20
9.0
 30
0.0
 11
-53.16271500000003
 21
9.0
 31
0.0
  0
LINE
  5
1842
330
16C3
100
AcDbEntity
  8
MSR1-4
100
AcDbLine
 10
-39.80000000000003
 20
8.0
 30
0.0
 11
-35.80000000000003
 21
1.5
 31
0.0
  0
LINE
  5
1843
330
16C3
100
AcDbEntity
  8
MSR1-4
100
AcDbLine
 10
-35.80000000000003
 20
8.0
 30
0.0
 11
-39.80000000000003
 21
1.5
 31
0.0
  0
POLYLINE
  5
1844
330
16C3
100
AcDbEntity
  8
MSR1-0
100
AcDb2dPolyline
 66
     1
 10
0.0
 20
0.0
 30
0.0
  0
VERTEX
  5
1845
330
1844
100
AcDbEntity
  8
MSR1-0
100
AcDbVertex
100
AcDb2dVertex
 10
-35.80000000000003
 20
14.5
 30
0.0
  0
VERTEX
  5
1846
330
1844
100
AcDbEntity
  8
MSR1-0
100
AcDbVertex
100
AcDb2dVertex
 10
-39.80000000000003
 20
14.5
 30
0.0
  0
VERTEX
  5
1847
330
1844
100
AcDbEntity
  8
MSR1-0
100
AcDbVertex
100
AcDb2dVertex
 10
-39.80000000000003
 20
1.5
 30
0.0
  0
VERTEX
  5
1848
330
1844
100
AcDbEntity
  8
MSR1-0
100
AcDbVertex
100
AcDb2dVertex
 10
-35.80000000000003
 20
1.5
 30
0.0
  0
SEQEND
  5
1849
330
1844
100
AcDbEntity
  8
MSR1-0
  0
LINE
  5
184A
330
16C3
100
AcDbEntity
  8
MSR1-4
100
AcDbLine
 10
-35.80000000000003
 20
-8.0
 30
0.0
 11
-39.80000000000003
 21
-14.5
 31
0.0
  0
LINE
  5
184B
330
16C3
100
AcDbEntity
  8
MSR1-4
100
AcDbLine
 10
-39.80000000000003
 20
-8.0
 30
0.0
 11
-35.80000000000003
 21
-14.5
 31
0.0
  0
LINE
  5
184C
330
16C3
100
AcDbEntity
  8
MSR1-0
100
AcDbLine
 10
-39.80000000000003
 20
-8.0
 30
0.0
 11
-35.80000000000003
 21
-8.0
 31
0.0
  0
POLYLINE
  5
184D
330
16C3
100
AcDbEntity
  8
MSR1-0
100
AcDb2dPolyline
 66
     1
 10
0.0
 20
0.0
 30
0.0
  0
VERTEX
  5
184E
330
184D
100
AcDbEntity
  8
MSR1-0
100
AcDbVertex
100
AcDb2dVertex
 10
-35.80000000000003
 20
-1.5
 30
0.0
  0
VERTEX
  5
184F
330
184D
100
AcDbEntity
  8
MSR1-0
100
AcDbVertex
100
AcDb2dVertex
 10
-39.80000000000003
 20
-1.5
 30
0.0
  0
VERTEX
  5
1850
330
184D
100
AcDbEntity
  8
MSR1-0
100
AcDbVertex
100
AcDb2dVertex
 10
-39.80000000000003
 20
-14.5
 30
0.0
  0
VERTEX
  5
1851
330
184D
100
AcDbEntity
  8
MSR1-0
100
AcDbVertex
100
AcDb2dVertex
 10
-35.80000000000003
 20
-14.5
 30
0.0
  0
SEQEND
  5
1852
330
184D
100
AcDbEntity
  8
MSR1-0
  0
LINE
  5
1853
330
16C3
100
AcDbEntity
  8
MSR1-4
100
AcDbLine
 10
-39.80000000000003
 20
-8.0
 30
0.0
 11
-35.80000000000003
 21
-1.5
 31
0.0
  0
LINE
  5
1854
330
16C3
100
AcDbEntity
  8
MSR1-4
100
AcDbLine
 10
-39.80000000000003
 20
-1.5
 30
0.0
 11
-35.80000000000003
 21
-8.0
 31
0.0
  0
LINE
  5
1855
330
16C3
100
AcDbEntity
  8
MSR1-0
100
AcDbLine
 10
-42.30000000000003
 20
-13.0
 30
0.0
 11
-42.30000000000003
 21
-5.0
 31
0.0
  0
LINE
  5
1856
330
16C3
100
AcDbEntity
  8
MSR1-7
100
AcDbLine
 10
-43.88511700000004
 20
-8.0
 30
0.0
 11
-39.80000000000003
 21
-8.0
 31
0.0
  0
LINE
  5
1857
330
16C3
100
AcDbEntity
  8
MSR1-0
100
AcDbLine
 10
-39.80000000000003
 20
8.0
 30
0.0
 11
-35.80000000000003
 21
8.0
 31
0.0
  0
LINE
  5
1858
330
16C3
100
AcDbEntity
  8
MSR1-4
100
AcDbLine
 10
-39.80000000000003
 20
14.5
 30
0.0
 11
-35.80000000000003
 21
8.0
 31
0.0
  0
LINE
  5
1859
330
16C3
100
AcDbEntity
  8
MSR1-4
100
AcDbLine
 10
-39.80000000000003
 20
8.0
 30
0.0
 11
-35.80000000000003
 21
14.5
 31
0.0
  0
LINE
  5
185A
330
16C3
100
AcDbEntity
  8
MSR1-0
100
AcDbLine
 10
-42.30000000000003
 20
5.0
 30
0.0
 11
-42.30000000000003
 21
13.0
 31
0.0
  0
LINE
  5
185B
330
16C3
100
AcDbEntity
  8
MSR1-7
100
AcDbLine
 10
-43.88511700000004
 20
8.0
 30
0.0
 11
-39.80000000000003
 21
8.0
 31
0.0
  0
ARC
  5
185C
330
16C3
100
AcDbEntity
  8
MSR1-0
100
AcDbCircle
 10
-16.30000000000004
 20
-43.15709367838533
 30
0.0
 40
5.0
100
AcDbArc
 50
179.999998
 51
270.000001
  0
LINE
  5
185D
330
16C3
100
AcDbEntity
  8
MSR1-3
100
AcDbLine
 10
-28.30000000000005
 20
-38.35709367838532
 30
0.0
 11
-21.30000000000004
 21
-38.35709367838532
 31
0.0
  0
LINE
  5
185E
330
16C3
100
AcDbEntity
  8
MSR1-3
100
AcDbLine
 10
-28.30000000000005
 20
-37.85709367838533
 30
0.0
 11
-21.30000000000004
 21
-37.85709367838533
 31
0.0
  0
LINE
  5
185F
330
16C3
100
AcDbEntity
  8
MSR1-3
100
AcDbLine
 10
-28.30000000000005
 20
-43.85709367838532
 30
0.0
 11
-21.19898000000006
 21
-43.85709367838532
 31
0.0
  0
LINE
  5
1860
330
16C3
100
AcDbEntity
  8
MSR1-3
100
AcDbLine
 10
-28.30000000000005
 20
-43.35709367838532
 30
0.0
 11
-21.27493700000005
 21
-43.35709367838532
 31
0.0
  0
POLYLINE
  5
1861
330
16C3
100
AcDbEntity
  8
MSR1-0
100
AcDb2dPolyline
 66
     1
 10
0.0
 20
0.0
 30
0.0
  0
VERTEX
  5
1862
330
1861
100
AcDbEntity
  8
MSR1-0
100
AcDbVertex
100
AcDb2dVertex
 10
-28.30000000000005
 20
-47.85709367838532
 30
0.0
  0
VERTEX
  5
1863
330
1861
100
AcDbEntity
  8
MSR1-0
100
AcDbVertex
100
AcDb2dVertex
 10
-28.30000000000005
 20
-36.85709367838533
 30
0.0
  0
VERTEX
  5
1864
330
1861
100
AcDbEntity
  8
MSR1-0
100
AcDbVertex
100
AcDb2dVertex
 10
-21.30000000000004
 20
-36.85709367838533
 30
0.0
  0
VERTEX
  5
1865
330
1861
100
AcDbEntity
  8
MSR1-0
100
AcDbVertex
100
AcDb2dVertex
 10
-21.30000000000004
 20
-43.15709367838533
 30
0.0
  0
SEQEND
  5
1866
330
1861
100
AcDbEntity
  8
MSR1-0
  0
LINE
  5
1867
330
16C3
100
AcDbEntity
  8
MSR1-0
100
AcDbLine
 10
-29.30000000000005
 20
-43.35709367838532
 30
0.0
 11
-28.30000000000005
 21
-43.35709367838532
 31
0.0
  0
LINE
  5
1868
330
16C3
100
AcDbEntity
  8
MSR1-4
100
AcDbLine
 10
-29.30000000000005
 20
-43.85709367838532
 30
0.0
 11
-28.30000000000005
 21
-43.85709367838532
 31
0.0
  0
LINE
  5
1869
330
16C3
100
AcDbEntity
  8
MSR1-4
100
AcDbLine
 10
-29.30000000000005
 20
-37.85709367838533
 30
0.0
 11
-28.30000000000005
 21
-37.85709367838533
 31
0.0
  0
LINE
  5
186A
330
16C3
100
AcDbEntity
  8
MSR1-0
100
AcDbLine
 10
-29.30000000000005
 20
-38.35709367838532
 30
0.0
 11
-28.30000000000005
 21
-38.35709367838532
 31
0.0
  0
LINE
  5
186B
330
16C3
100
AcDbEntity
  8
MSR1-0
100
AcDbLine
 10
-5.000000000000028
 20
-35.35709367838533
 30
0.0
 11
-5.000000000000056
 21
-38.35709367838532
 31
0.0
  0
LINE
  5
186C
330
16C3
100
AcDbEntity
  8
MSR1-7
100
AcDbLine
 10
-11.00000000000003
 20
-29.19666267838531
 30
0.0
 11
-11.00000000000003
 21
-37.58895467838531
 31
0.0
  0
LINE
  5
186D
330
16C3
100
AcDbEntity
  8
MSR1-0
100
AcDbLine
 10
-5.000000000000028
 20
-43.35709367838532
 30
0.0
 11
-5.000000000000028
 21
-44.35709367838533
 31
0.0
  0
CIRCLE
  5
186E
330
16C3
100
AcDbEntity
  8
MSR1-0
100
AcDbCircle
 10
-16.0
 20
0.0
 30
0.0
 40
4.0
  0
CIRCLE
  5
186F
330
16C3
100
AcDbEntity
  8
MSR1-0
100
AcDbCircle
 10
-16.0
 20
0.0
 30
0.0
 40
3.5
  0
POLYLINE
  5
1870
330
16C3
100
AcDbEntity
  8
MSR1-0
100
AcDb2dPolyline
 66
     1
 10
0.0
 20
0.0
 30
0.0
 70
     1
  0
VERTEX
  5
1871
330
1870
100
AcDbEntity
  8
MSR1-0
100
AcDbVertex
100
AcDb2dVertex
 10
-16.866026
 20
1.5
 30
0.0
  0
VERTEX
  5
1872
330
1870
100
AcDbEntity
  8
MSR1-0
100
AcDbVertex
100
AcDb2dVertex
 10
-15.13397500000002
 20
1.5
 30
0.0
  0
VERTEX
  5
1873
330
1870
100
AcDbEntity
  8
MSR1-0
100
AcDbVertex
100
AcDb2dVertex
 10
-14.26794900000001
 20
0.0
 30
0.0
  0
VERTEX
  5
1874
330
1870
100
AcDbEntity
  8
MSR1-0
100
AcDbVertex
100
AcDb2dVertex
 10
-15.13397500000002
 20
-1.5
 30
0.0
  0
VERTEX
  5
1875
330
1870
100
AcDbEntity
  8
MSR1-0
100
AcDbVertex
100
AcDb2dVertex
 10
-16.866026
 20
-1.5
 30
0.0
  0
VERTEX
  5
1876
330
1870
100
AcDbEntity
  8
MSR1-0
100
AcDbVertex
100
AcDb2dVertex
 10
-17.73205100000001
 20
0.0
 30
0.0
  0
VERTEX
  5
1877
330
1870
100
AcDbEntity
  8
MSR1-0
100
AcDbVertex
100
AcDb2dVertex
 10
-16.866026
 20
1.5
 30
0.0
  0
VERTEX
  5
1878
330
1870
100
AcDbEntity
  8
MSR1-0
100
AcDbVertex
100
AcDb2dVertex
 10
-16.866026
 20
1.5
 30
0.0
  0
SEQEND
  5
1879
330
1870
100
AcDbEntity
  8
MSR1-0
  0
INSERT
  5
187A
330
16C3
100
AcDbEntity
  8
MSR1-0N
100
AcDbBlockReference
 66
     1
  2
GENINF13
 10
-23.38929783046291
 20
-11.43832472150558
 30
0.0
1001
GENIUS_GENSCSYM_13
1002
{
1000
INSPT
1011
-23.38929783046291
1021
-11.43832472150558
1031
0.0
1002
}
1002
{
1000
SCALE
1042
1.0
1002
}
1002
{
1000
USEOLDBPT
1070
     0
1002
}
1001
GENIUS_GENOBJ-N-INFOPT_13
1002
{
1000
OWNER
1000
GEN
1002
}
1001
GENIUS_GENSYMENT_13
1002
{
1000
ENT
1005
187A
1002
}
1001
GENIUS_GENODEF_13
1002
{
1000
HIER
1070
     0
1002
}
1002
{
1000
MANEDIT
1070
     0
1002
}
1002
{
1000
NOSEL
1070
     0
1002
}
1002
{
1000
BEHIND
1070
     0
1002
}
1002
{
1000
REACTOR
1002
}
1001
GENIUS_GENOBJ-N-RSSYM_13
1002
{
1000
OWNER
1000
GEN
1002
}
1001
GENIUS_GENINF13_13
1070
     1
  0
ATTRIB
  5
187B
330
187A
100
AcDbEntity
  8
INFO
100
AcDbText
 10
-23.38929783046291
 20
-11.43832472150558
 30
0.0
 40
1.0
  1
1
100
AcDbAttribute
  2
2GENINF
 70
     1
  0
ATTRIB
  5
187C
330
187A
100
AcDbEntity
  8
INFO
100
AcDbText
 10
-23.38929783046291
 20
-12.93832472150558
 30
0.0
 40
1.0
  1

100
AcDbAttribute
  2
3GENINF
 70
     1
  0
ATTRIB
  5
187D
330
187A
100
AcDbEntity
  8
INFO
100
AcDbText
 10
-23.38929783046291
 20
-14.43832472150558
 30
0.0
 40
1.0
  1

100
AcDbAttribute
  2
4GENINF
 70
     1
  0
ATTRIB
  5
187E
330
187A
100
AcDbEntity
  8
INFO
100
AcDbText
 10
-23.38929783046291
 20
-15.93832472150558
 30
0.0
 40
1.0
  1
MSR 1
100
AcDbAttribute
  2
5GENINF
 70
     1
  0
ATTRIB
  5
187F
330
187A
100
AcDbEntity
  8
INFO
100
AcDbText
 10
-23.38929783046291
 20
-17.43832472150558
 30
0.0
 40
1.0
  1

100
AcDbAttribute
  2
6GENINF
 70
     1
  0
ATTRIB
  5
1880
330
187A
100
AcDbEntity
  8
INFO
100
AcDbText
 10
-23.38929783046291
 20
-18.93832472150558
 30
0.0
 40
1.0
  1
Fa. Mayer
100
AcDbAttribute
  2
7GENINF
 70
     1
  0
ATTRIB
  5
1881
330
187A
100
AcDbEntity
  8
INFO
100
AcDbText
 10
-23.38929783046291
 20
-20.43832472150558
 30
0.0
 40
1.0
  1

100
AcDbAttribute
  2
8GENINF
 70
     1
  0
ATTRIB
  5
1882
330
187A
100
AcDbEntity
  8
INFO
100
AcDbText
 10
-23.38929783046291
 20
-21.93832472150558
 30
0.0
 40
1.0
  1

100
AcDbAttribute
  2
9GENINF
 70
     1
  0
ATTRIB
  5
1883
330
187A
100
AcDbEntity
  8
INFO
100
AcDbText
 10
-23.38929783046291
 20
-23.43832472150558
 30
0.0
 40
1.0
  1

100
AcDbAttribute
  2
10GENINF
 70
     1
  0
ATTRIB
  5
1884
330
187A
100
AcDbEntity
  8
INFO
100
AcDbText
 10
-23.38929783046291
 20
-24.93832472150558
 30
0.0
 40
1.0
  1

100
AcDbAttribute
  2
11GENINF
 70
     1
  0
ATTRIB
  5
1885
330
187A
100
AcDbEntity
  8
INFO
100
AcDbText
 10
-23.38929783046291
 20
-26.43832472150558
 30
0.0
 40
1.0
  1

100
AcDbAttribute
  2
12GENINF
 70
     1
  0
ATTRIB
  5
1886
330
187A
100
AcDbEntity
  8
INFO
100
AcDbText
 10
-23.38929783046291
 20
-27.93832472150558
 30
0.0
 40
1.0
  1

100
AcDbAttribute
  2
13GENINF
 70
     1
  0
ATTRIB
  5
1887
330
187A
100
AcDbEntity
  8
INFO
100
AcDbText
 10
-23.38929783046291
 20
-29.43832472150558
 30
0.0
 40
1.0
  1

100
AcDbAttribute
  2
14GENINF
 70
     1
  0
ATTRIB
  5
1888
330
187A
100
AcDbEntity
  8
INFO
100
AcDbText
 10
-23.38929783046291
 20
-30.93832472150558
 30
0.0
 40
1.0
  1

100
AcDbAttribute
  2
15GENINF
 70
     1
  0
ATTRIB
  5
1889
330
187A
100
AcDbEntity
  8
INFO
100
AcDbText
 10
-23.38929783046291
 20
-32.43832472150558
 30
0.0
 40
1.0
  1

100
AcDbAttribute
  2
16GENINF
 70
     1
  0
ATTRIB
  5
188A
330
187A
100
AcDbEntity
  8
INFO
100
AcDbText
 10
-23.38929783046291
 20
-33.93832472150558
 30
0.0
 40
1.0
  1

100
AcDbAttribute
  2
17GENINF
 70
     1
  0
ATTRIB
  5
188B
330
187A
100
AcDbEntity
  8
INFO
100
AcDbText
 10
-23.38929783046291
 20
-35.43832472150558
 30
0.0
 40
1.0
  1

100
AcDbAttribute
  2
18GENINF
 70
     1
  0
ATTRIB
  5
188C
330
187A
100
AcDbEntity
  8
INFO
100
AcDbText
 10
-23.38929783046291
 20
-36.93832472150558
 30
0.0
 40
1.0
  1

100
AcDbAttribute
  2
19GENINF
 70
     1
  0
ATTRIB
  5
188D
330
187A
100
AcDbEntity
  8
INFO
100
AcDbText
 10
-23.38929783046291
 20
-38.43832472150558
 30
0.0
 40
1.0
  1

100
AcDbAttribute
  2
20GENINF
 70
     1
  0
ATTRIB
  5
188E
330
187A
100
AcDbEntity
  8
INFO
100
AcDbText
 10
-23.38929783046291
 20
-39.93832472150558
 30
0.0
 40
1.0
  1

100
AcDbAttribute
  2
21GENINF
 70
     1
  0
ATTRIB
  5
188F
330
187A
100
AcDbEntity
  8
INFO
100
AcDbText
 10
-23.38929783046291
 20
-41.43832472150558
 30
0.0
 40
1.0
  1

100
AcDbAttribute
  2
22GENINF
 70
     1
  0
ATTRIB
  5
1890
330
187A
100
AcDbEntity
  8
INFO
100
AcDbText
 10
-23.38929783046291
 20
-42.93832472150557
 30
0.0
 40
1.0
  1

100
AcDbAttribute
  2
23GENINF
 70
     1
  0
ATTRIB
  5
1891
330
187A
100
AcDbEntity
  8
INFO
100
AcDbText
 10
-23.38929783046291
 20
-44.43832472150558
 30
0.0
 40
1.0
  1

100
AcDbAttribute
  2
24GENINF
 70
     1
  0
ATTRIB
  5
1892
330
187A
100
AcDbEntity
  8
INFO
100
AcDbText
 10
-23.38929783046291
 20
-45.93832472150558
 30
0.0
 40
1.0
  1

100
AcDbAttribute
  2
0GENINF
 70
     1
  0
SEQEND
  5
1893
330
187A
100
AcDbEntity
  8
MSR1-0N
  0
LINE
  5
1894
330
16C3
100
AcDbEntity
  8
MSR1-3
100
AcDbLine
 10
-21.60000000000002
 20
10.24172999999999
 30
0.0
 11
-21.60000000000002
 21
15.0
 31
0.0
  0
LINE
  5
1895
330
16C3
100
AcDbEntity
  8
MSR1-3
100
AcDbLine
 10
-22.0
 20
10.24172999999999
 30
0.0
 11
-22.0
 21
15.0
 31
0.0
  0
LINE
  5
1896
330
16C3
100
AcDbEntity
  8
MSR1-7
100
AcDbLine
 10
-19.5
 20
8.744429000000025
 30
0.0
 11
-19.5
 21
17.69215600000001
 31
0.0
  0
LINE
  5
1897
330
16C3
100
AcDbEntity
  8
MSR1-7
100
AcDbLine
 10
-16.0
 20
5.670573000000018
 30
0.0
 11
-16.0
 21
-5.441927000000021
 31
0.0
  0
LINE
  5
1898
330
16C3
100
AcDbEntity
  8
MSR1-7
100
AcDbLine
 10
-12.83767000000003
 20
-10.0
 30
0.0
 11
-6.934155000000004
 21
-10.0
 31
0.0
  0
ARC
  5
1899
330
16C3
100
AcDbEntity
  8
MSR1-4
100
AcDbCircle
 10
-10.0
 20
-10.0
 30
0.0
 40
2.0
100
AcDbArc
 50
89.999999
 51
0.0
  0
CIRCLE
  5
189A
330
16C3
100
AcDbEntity
  8
MSR1-0
100
AcDbCircle
 10
-10.0
 20
-10.0
 30
0.0
 40
1.649999999999999
  0
LINE
  5
189B
330
16C3
100
AcDbEntity
  8
MSR1-7
100
AcDbLine
 10
-10.0
 20
-7.020948000000004
 30
0.0
 11
-10.0
 21
-13.27172900000002
 31
0.0
  0
LINE
  5
189C
330
16C3
100
AcDbEntity
  8
MSR1-7
100
AcDbLine
 10
-12.83767000000003
 20
10.0
 30
0.0
 11
-6.934155000000004
 21
10.0
 31
0.0
  0
ARC
  5
189D
330
16C3
100
AcDbEntity
  8
MSR1-4
100
AcDbCircle
 10
-10.0
 20
10.0
 30
0.0
 40
2.0
100
AcDbArc
 50
89.999999
 51
0.0
  0
CIRCLE
  5
189E
330
16C3
100
AcDbEntity
  8
MSR1-0
100
AcDbCircle
 10
-10.0
 20
10.0
 30
0.0
 40
1.649999999999999
  0
LINE
  5
189F
330
16C3
100
AcDbEntity
  8
MSR1-3
100
AcDbLine
 10
-17.4
 20
10.24172999999999
 30
0.0
 11
-17.4
 21
15.0
 31
0.0
  0
LINE
  5
18A0
330
16C3
100
AcDbEntity
  8
MSR1-3
100
AcDbLine
 10
-17.0
 20
10.24172999999999
 30
0.0
 11
-17.0
 21
15.0
 31
0.0
  0
LINE
  5
18A1
330
16C3
100
AcDbEntity
  8
MSR1-3
100
AcDbLine
 10
-4.400000000000005
 20
10.24172999999999
 30
0.0
 11
-4.400000000000005
 21
15.0
 31
0.0
  0
LINE
  5
18A2
330
16C3
100
AcDbEntity
  8
MSR1-3
100
AcDbLine
 10
-4.0
 20
10.24172999999999
 30
0.0
 11
-4.0
 21
15.0
 31
0.0
  0
LINE
  5
18A3
330
16C3
100
AcDbEntity
  8
MSR1-3
100
AcDbLine
 10
-8.600000000000022
 20
10.24172999999999
 30
0.0
 11
-8.600000000000022
 21
15.0
 31
0.0
  0
LINE
  5
18A4
330
16C3
100
AcDbEntity
  8
MSR1-3
100
AcDbLine
 10
-9.0
 20
10.24172999999999
 30
0.0
 11
-9.0
 21
15.0
 31
0.0
  0
LINE
  5
18A5
330
16C3
100
AcDbEntity
  8
MSR1-7
100
AcDbLine
 10
-6.5
 20
8.744429000000025
 30
0.0
 11
-6.5
 21
17.69215600000001
 31
0.0
  0
LINE
  5
18A6
330
16C3
100
AcDbEntity
  8
MSR1-7
100
AcDbLine
 10
-10.0
 20
12.97905200000002
 30
0.0
 11
-10.0
 21
6.728271000000006
 31
0.0
  0
POLYLINE
  5
18A7
330
16C3
100
AcDbEntity
  8
MSR1-0
100
AcDb2dPolyline
 66
     1
 10
0.0
 20
0.0
 30
0.0
  0
VERTEX
  5
18A8
330
18A7
100
AcDbEntity
  8
MSR1-0
100
AcDbVertex
100
AcDb2dVertex
 10
14.49999999999997
 20
-30.35709367838533
 30
0.0
  0
VERTEX
  5
18A9
330
18A7
100
AcDbEntity
  8
MSR1-0
100
AcDbVertex
100
AcDb2dVertex
 10
14.49999999999997
 20
-31.95709367838532
 30
0.0
  0
VERTEX
  5
18AA
330
18A7
100
AcDbEntity
  8
MSR1-0
100
AcDbVertex
100
AcDb2dVertex
 10
7.499999999999971
 20
-31.95709367838532
 30
0.0
  0
VERTEX
  5
18AB
330
18A7
100
AcDbEntity
  8
MSR1-0
100
AcDbVertex
100
AcDb2dVertex
 10
7.499999999999971
 20
-30.35709367838533
 30
0.0
  0
SEQEND
  5
18AC
330
18A7
100
AcDbEntity
  8
MSR1-0
  0
POLYLINE
  5
18AD
330
16C3
100
AcDbEntity
  8
MSR1-0
100
AcDb2dPolyline
 66
     1
 10
0.0
 20
0.0
 30
0.0
  0
VERTEX
  5
18AE
330
18AD
100
AcDbEntity
  8
MSR1-0
100
AcDbVertex
100
AcDb2dVertex
 10
7.499999999999971
 20
-35.35709367838533
 30
0.0
  0
VERTEX
  5
18AF
330
18AD
100
AcDbEntity
  8
MSR1-0
100
AcDbVertex
100
AcDb2dVertex
 10
7.499999999999971
 20
-34.35709367838533
 30
0.0
  0
VERTEX
  5
18B0
330
18AD
100
AcDbEntity
  8
MSR1-0
100
AcDbVertex
100
AcDb2dVertex
 10
14.49999999999997
 20
-34.35709367838533
 30
0.0
  0
VERTEX
  5
18B1
330
18AD
100
AcDbEntity
  8
MSR1-0
100
AcDbVertex
100
AcDb2dVertex
 10
14.49999999999997
 20
-35.35709367838533
 30
0.0
  0
SEQEND
  5
18B2
330
18AD
100
AcDbEntity
  8
MSR1-0
  0
LINE
  5
18B3
330
16C3
100
AcDbEntity
  8
MSR1-7
100
AcDbLine
 10
10.99999999999997
 20
-29.19666267838531
 30
0.0
 11
10.99999999999997
 21
-37.58895467838531
 31
0.0
  0
LINE
  5
18B4
330
16C3
100
AcDbEntity
  8
MSR1-0
100
AcDbLine
 10
4.499999999999971
 20
-35.35709367838533
 30
0.0
 11
4.499999999999971
 21
-44.35709367838533
 31
0.0
  0
LINE
  5
18B5
330
16C3
100
AcDbEntity
  8
MSR1-0
100
AcDbLine
 10
-1.800000000000039
 20
-38.35709367838532
 30
0.0
 11
-1.800000000000039
 21
-43.35709367838532
 31
0.0
  0
INSERT
  5
18B6
330
16C3
100
AcDbEntity
  8
MSR1-8
100
AcDbBlockReference
  2
*X6
 10
-153.454334
 20
-176.7011076783853
 30
0.0
1001
GENIUS_GENODEF_13
1002
{
1000
HIER
1070
     0
1002
}
1002
{
1000
MANEDIT
1070
     0
1002
}
1002
{
1000
NOSEL
1070
     0
1002
}
1002
{
1000
BEHIND
1070
     0
1002
}
1002
{
1000
REACTOR
1002
}
1001
GENIUS_GENOBJ-N-HTC_13
1002
{
1000
OWNER
1000
GEN
1002
}
1001
GENIUS_GENHATCH_13
1002
{
1000
DATA
1040
45.0
1042
1.25
1000
_U
1070
     0
1011
5.850125629639563
1021
-32.94994273109677
1031
0.0
1002
}
1002
{
1000
UCS
1010
0.0
1020
0.0
1030
0.0
1010
1.0
1020
0.0
1030
0.0
1010
0.0
1020
1.0
1030
0.0
1002
}
1001
ACAD
1000
HATCH
1002
{
1070
    19
1000
_U
1040
1.25
1040
0.7853981633974483
1070
     0
1002
}
  0
POLYLINE
  5
18B7
330
16C3
100
AcDbEntity
  8
MSR1-4
100
AcDb2dPolyline
 66
     1
 10
0.0
 20
0.0
 30
0.0
 70
     4
 75
     6
  0
VERTEX
  5
18B8
330
18B7
100
AcDbEntity
  8
MSR1-4
100
AcDbVertex
100
AcDb2dVertex
 10
4.87432608792298
 20
-35.35709367838533
 30
0.0
 70
    16
  0
VERTEX
  5
18B9
330
18B7
100
AcDbEntity
  8
MSR1-4
100
AcDbVertex
100
AcDb2dVertex
 10
4.87432608792298
 20
-35.35709367838533
 30
0.0
 70
     8
  0
VERTEX
  5
18BA
330
18B7
100
AcDbEntity
  8
MSR1-4
100
AcDbVertex
100
AcDb2dVertex
 10
4.776316693022749
 20
-35.10693796152461
 30
0.0
 70
     8
  0
VERTEX
  5
18BB
330
18B7
100
AcDbEntity
  8
MSR1-4
100
AcDbVertex
100
AcDb2dVertex
 10
4.695920074695493
 20
-34.87484319207599
 30
0.0
 70
     8
  0
VERTEX
  5
18BC
330
18B7
100
AcDbEntity
  8
MSR1-4
100
AcDbVertex
100
AcDb2dVertex
 10
4.631821846348771
 20
-34.65969292524781
 30
0.0
 70
     8
  0
VERTEX
  5
18BD
330
18B7
100
AcDbEntity
  8
MSR1-4
100
AcDbVertex
100
AcDb2dVertex
 10
4.58270762139017
 20
-34.46037071624849
 30
0.0
 70
     8
  0
VERTEX
  5
18BE
330
18B7
100
AcDbEntity
  8
MSR1-4
100
AcDbVertex
100
AcDb2dVertex
 10
4.547263013227166
 20
-34.27576012028641
 30
0.0
 70
     8
  0
VERTEX
  5
18BF
330
18B7
100
AcDbEntity
  8
MSR1-4
100
AcDbVertex
100
AcDb2dVertex
 10
4.524173635267288
 20
-34.10474469256988
 30
0.0
 70
     8
  0
VERTEX
  5
18C0
330
18B7
100
AcDbEntity
  8
MSR1-4
100
AcDbVertex
100
AcDb2dVertex
 10
4.512125100918126
 20
-33.94620798830729
 30
0.0
 70
     8
  0
VERTEX
  5
18C1
330
18B7
100
AcDbEntity
  8
MSR1-4
100
AcDbVertex
100
AcDb2dVertex
 10
4.509803023587039
 20
-33.79903356270702
 30
0.0
 70
     8
  0
VERTEX
  5
18C2
330
18B7
100
AcDbEntity
  8
MSR1-4
100
AcDbVertex
100
AcDb2dVertex
 10
4.515821820810032
 20
-33.66211042952199
 30
0.0
 70
     8
  0
VERTEX
  5
18C3
330
18B7
100
AcDbEntity
  8
MSR1-4
100
AcDbVertex
100
AcDb2dVertex
 10
4.528511126635663
 20
-33.53434943668302
 30
0.0
 70
     8
  0
VERTEX
  5
18C4
330
18B7
100
AcDbEntity
  8
MSR1-4
100
AcDbVertex
100
AcDb2dVertex
 10
4.546129379240824
 20
-33.41466689066553
 30
0.0
 70
     8
  0
VERTEX
  5
18C5
330
18B7
100
AcDbEntity
  8
MSR1-4
100
AcDbVertex
100
AcDb2dVertex
 10
4.566935016802403
 20
-33.30197909794484
 30
0.0
 70
     8
  0
VERTEX
  5
18C6
330
18B7
100
AcDbEntity
  8
MSR1-4
100
AcDbVertex
100
AcDb2dVertex
 10
4.589186477497321
 20
-33.19520236499637
 30
0.0
 70
     8
  0
VERTEX
  5
18C7
330
18B7
100
AcDbEntity
  8
MSR1-4
100
AcDbVertex
100
AcDb2dVertex
 10
4.611142199502467
 20
-33.09325299829547
 30
0.0
 70
     8
  0
VERTEX
  5
18C8
330
18B7
100
AcDbEntity
  8
MSR1-4
100
AcDbVertex
100
AcDb2dVertex
 10
4.631060620994702
 20
-32.99504730431753
 30
0.0
 70
     8
  0
VERTEX
  5
18C9
330
18B7
100
AcDbEntity
  8
MSR1-4
100
AcDbVertex
100
AcDb2dVertex
 10
4.647200180150974
 20
-32.89950158953795
 30
0.0
 70
     8
  0
VERTEX
  5
18CA
330
18B7
100
AcDbEntity
  8
MSR1-4
100
AcDbVertex
100
AcDb2dVertex
 10
4.658202678067709
 20
-32.8057675080012
 30
0.0
 70
     8
  0
VERTEX
  5
18CB
330
18B7
100
AcDbEntity
  8
MSR1-4
100
AcDbVertex
100
AcDb2dVertex
 10
4.664243367519787
 20
-32.71393810402813
 30
0.0
 70
     8
  0
VERTEX
  5
18CC
330
18B7
100
AcDbEntity
  8
MSR1-4
100
AcDbVertex
100
AcDb2dVertex
 10
4.665880864201653
 20
-32.62434176950879
 30
0.0
 70
     8
  0
VERTEX
  5
18CD
330
18B7
100
AcDbEntity
  8
MSR1-4
100
AcDbVertex
100
AcDb2dVertex
 10
4.663673783807723
 20
-32.53730689633321
 30
0.0
 70
     8
  0
VERTEX
  5
18CE
330
18B7
100
AcDbEntity
  8
MSR1-4
100
AcDbVertex
100
AcDb2dVertex
 10
4.65818074203247
 20
-32.45316187639133
 30
0.0
 70
     8
  0
VERTEX
  5
18CF
330
18B7
100
AcDbEntity
  8
MSR1-4
100
AcDbVertex
100
AcDb2dVertex
 10
4.64996035457031
 20
-32.37223510157321
 30
0.0
 70
     8
  0
VERTEX
  5
18D0
330
18B7
100
AcDbEntity
  8
MSR1-4
100
AcDbVertex
100
AcDb2dVertex
 10
4.639571237115717
 20
-32.29485496376884
 30
0.0
 70
     8
  0
VERTEX
  5
18D1
330
18B7
100
AcDbEntity
  8
MSR1-4
100
AcDbVertex
100
AcDb2dVertex
 10
4.627572005363077
 20
-32.22134985486821
 30
0.0
 70
     8
  0
VERTEX
  5
18D2
330
18B7
100
AcDbEntity
  8
MSR1-4
100
AcDbVertex
100
AcDb2dVertex
 10
4.61442817186807
 20
-32.15190039021909
 30
0.0
 70
     8
  0
VERTEX
  5
18D3
330
18B7
100
AcDbEntity
  8
MSR1-4
100
AcDbVertex
100
AcDb2dVertex
 10
4.600232836631164
 20
-32.08609607900033
 30
0.0
 70
     8
  0
VERTEX
  5
18D4
330
18B7
100
AcDbEntity
  8
MSR1-4
100
AcDbVertex
100
AcDb2dVertex
 10
4.58498599651395
 20
-32.02337865384843
 30
0.0
 70
     8
  0
VERTEX
  5
18D5
330
18B7
100
AcDbEntity
  8
MSR1-4
100
AcDbVertex
100
AcDb2dVertex
 10
4.568687648378102
 20
-31.9631898474
 30
0.0
 70
     8
  0
VERTEX
  5
18D6
330
18B7
100
AcDbEntity
  8
MSR1-4
100
AcDbVertex
100
AcDb2dVertex
 10
4.551337789085266
 20
-31.90497139229157
 30
0.0
 70
     8
  0
VERTEX
  5
18D7
330
18B7
100
AcDbEntity
  8
MSR1-4
100
AcDbVertex
100
AcDb2dVertex
 10
4.532936415497118
 20
-31.84816502115979
 30
0.0
 70
     8
  0
VERTEX
  5
18D8
330
18B7
100
AcDbEntity
  8
MSR1-4
100
AcDbVertex
100
AcDb2dVertex
 10
4.513483524475276
 20
-31.79221246664116
 30
0.0
 70
     8
  0
VERTEX
  5
18D9
330
18B7
100
AcDbEntity
  8
MSR1-4
100
AcDbVertex
100
AcDb2dVertex
 10
4.492979112881386
 20
-31.73655546137226
 30
0.0
 70
     8
  0
VERTEX
  5
18DA
330
18B7
100
AcDbEntity
  8
MSR1-4
100
AcDbVertex
100
AcDb2dVertex
 10
4.471510804291426
 20
-31.6806028989445
 30
0.0
 70
     8
  0
VERTEX
  5
18DB
330
18B7
100
AcDbEntity
  8
MSR1-4
100
AcDbVertex
100
AcDb2dVertex
 10
4.449516729138792
 20
-31.62363231676841
 30
0.0
 70
     8
  0
VERTEX
  5
18DC
330
18B7
100
AcDbEntity
  8
MSR1-4
100
AcDbVertex
100
AcDb2dVertex
 10
4.427522644571041
 20
-31.56488841320939
 30
0.0
 70
     8
  0
VERTEX
  5
18DD
330
18B7
100
AcDbEntity
  8
MSR1-4
100
AcDbVertex
100
AcDb2dVertex
 10
4.406054307735928
 20
-31.50361588663282
 30
0.0
 70
     8
  0
VERTEX
  5
18DE
330
18B7
100
AcDbEntity
  8
MSR1-4
100
AcDbVertex
100
AcDb2dVertex
 10
4.385637475781095
 20
-31.43905943540409
 30
0.0
 70
     8
  0
VERTEX
  5
18DF
330
18B7
100
AcDbEntity
  8
MSR1-4
100
AcDbVertex
100
AcDb2dVertex
 10
4.366797905854213
 20
-31.37046375788859
 30
0.0
 70
     8
  0
VERTEX
  5
18E0
330
18B7
100
AcDbEntity
  8
MSR1-4
100
AcDbVertex
100
AcDb2dVertex
 10
4.350061355102923
 20
-31.29707355245168
 30
0.0
 70
     8
  0
VERTEX
  5
18E1
330
18B7
100
AcDbEntity
  8
MSR1-4
100
AcDbVertex
100
AcDb2dVertex
 10
4.335953580674924
 20
-31.21813351745874
 30
0.0
 70
     8
  0
VERTEX
  5
18E2
330
18B7
100
AcDbEntity
  8
MSR1-4
100
AcDbVertex
100
AcDb2dVertex
 10
4.325109871868562
 20
-31.13300731709754
 30
0.0
 70
     8
  0
VERTEX
  5
18E3
330
18B7
100
AcDbEntity
  8
MSR1-4
100
AcDbVertex
100
AcDb2dVertex
 10
4.318603646584705
 20
-31.04153447884514
 30
0.0
 70
     8
  0
VERTEX
  5
18E4
330
18B7
100
AcDbEntity
  8
MSR1-4
100
AcDbVertex
100
AcDb2dVertex
 10
4.317617854875038
 20
-30.943673496001
 30
0.0
 70
     8
  0
VERTEX
  5
18E5
330
18B7
100
AcDbEntity
  8
MSR1-4
100
AcDbVertex
100
AcDb2dVertex
 10
4.323335446791134
 20
-30.83938286186461
 30
0.0
 70
     8
  0
VERTEX
  5
18E6
330
18B7
100
AcDbEntity
  8
MSR1-4
100
AcDbVertex
100
AcDb2dVertex
 10
4.336939372384591
 20
-30.72862106973537
 30
0.0
 70
     8
  0
VERTEX
  5
18E7
330
18B7
100
AcDbEntity
  8
MSR1-4
100
AcDbVertex
100
AcDb2dVertex
 10
4.35961258170704
 20
-30.6113466129128
 30
0.0
 70
     8
  0
VERTEX
  5
18E8
330
18B7
100
AcDbEntity
  8
MSR1-4
100
AcDbVertex
100
AcDb2dVertex
 10
4.39253802481005
 20
-30.4875179846963
 30
0.0
 70
     8
  0
VERTEX
  5
18E9
330
18B7
100
AcDbEntity
  8
MSR1-4
100
AcDbVertex
100
AcDb2dVertex
 10
4.436898651745252
 20
-30.35709367838533
 30
0.0
 70
     8
  0
VERTEX
  5
18EA
330
18B7
100
AcDbEntity
  8
MSR1-4
100
AcDbVertex
100
AcDb2dVertex
 10
4.588315655787226
 20
-34.66493810817025
 30
0.0
 70
    16
  0
VERTEX
  5
18EB
330
18B7
100
AcDbEntity
  8
MSR1-4
100
AcDbVertex
100
AcDb2dVertex
 10
4.420074272379082
 20
-33.68974466808623
 30
0.0
 70
    16
  0
VERTEX
  5
18EC
330
18B7
100
AcDbEntity
  8
MSR1-4
100
AcDbVertex
100
AcDb2dVertex
 10
4.706084704514722
 20
-32.88268787568501
 30
0.0
 70
    16
  0
VERTEX
  5
18ED
330
18B7
100
AcDbEntity
  8
MSR1-4
100
AcDbVertex
100
AcDb2dVertex
 10
4.638787990467875
 20
-32.17651336640148
 30
0.0
 70
    16
  0
VERTEX
  5
18EE
330
18B7
100
AcDbEntity
  8
MSR1-4
100
AcDbVertex
100
AcDb2dVertex
 10
4.504195365792242
 20
-31.73935778791832
 30
0.0
 70
    16
  0
VERTEX
  5
18EF
330
18B7
100
AcDbEntity
  8
MSR1-4
100
AcDbVertex
100
AcDb2dVertex
 10
4.302305223651472
 20
-31.28538825015886
 30
0.0
 70
    16
  0
VERTEX
  5
18F0
330
18B7
100
AcDbEntity
  8
MSR1-4
100
AcDbVertex
100
AcDb2dVertex
 10
4.302305223651472
 20
-30.71372296085207
 30
0.0
 70
    16
  0
VERTEX
  5
18F1
330
18B7
100
AcDbEntity
  8
MSR1-4
100
AcDbVertex
100
AcDb2dVertex
 10
4.436898651745252
 20
-30.35709367838533
 30
0.0
 70
    16
  0
SEQEND
  5
18F2
330
18B7
100
AcDbEntity
  8
MSR1-4
  0
LINE
  5
18F3
330
16C3
100
AcDbEntity
  8
MSR1-0
100
AcDbLine
 10
8.899999999999948
 20
-31.95709367838532
 30
0.0
 11
8.899999999999948
 21
-34.35709367838533
 31
0.0
  0
LINE
  5
18F4
330
16C3
100
AcDbEntity
  8
MSR1-0
100
AcDbLine
 10
12.49999999999997
 20
-35.35709367838533
 30
0.0
 11
12.49999999999997
 21
-44.35709367838533
 31
0.0
  0
INSERT
  5
18F5
330
16C3
100
AcDbEntity
  8
MSR1-8
100
AcDbBlockReference
  2
*X7
 10
-153.454334
 20
-176.7011076783853
 30
0.0
1001
GENIUS_GENODEF_13
1002
{
1000
HIER
1070
     0
1002
}
1002
{
1000
MANEDIT
1070
     0
1002
}
1002
{
1000
NOSEL
1070
     0
1002
}
1002
{
1000
BEHIND
1070
     0
1002
}
1002
{
1000
REACTOR
1002
}
1001
GENIUS_GENOBJ-N-HTC_13
1002
{
1000
OWNER
1000
GEN
1002
}
1001
GENIUS_GENHATCH_13
1002
{
1000
DATA
1040
45.0
1042
1.25
1000
_U
1070
     0
1011
14.26219399663077
1021
-33.08445195107362
1031
0.0
1002
}
1002
{
1000
UCS
1010
0.0
1020
0.0
1030
0.0
1010
1.0
1020
0.0
1030
0.0
1010
0.0
1020
1.0
1030
0.0
1002
}
1001
ACAD
1000
HATCH
1002
{
1070
    19
1000
_U
1040
1.25
1040
0.7853981633974483
1070
     0
1002
}
  0
LINE
  5
18F6
330
16C3
100
AcDbEntity
  8
MSR1-0
100
AcDbLine
 10
13.09999999999996
 20
-31.95709367838532
 30
0.0
 11
13.09999999999996
 21
-34.35709367838533
 31
0.0
  0
LINE
  5
18F7
330
16C3
100
AcDbEntity
  8
MSR1-7
100
AcDbLine
 10
7.162329999999968
 20
10.0
 30
0.0
 11
13.06584499999999
 21
10.0
 31
0.0
  0
CIRCLE
  5
18F8
330
16C3
100
AcDbEntity
  8
MSR1-0
100
AcDbCircle
 10
10.0
 20
10.0
 30
0.0
 40
1.649999999999999
  0
ARC
  5
18F9
330
16C3
100
AcDbEntity
  8
MSR1-4
100
AcDbCircle
 10
10.0
 20
10.0
 30
0.0
 40
2.0
100
AcDbArc
 50
89.999999
 51
0.0
  0
LINE
  5
18FA
330
16C3
100
AcDbEntity
  8
MSR1-7
100
AcDbLine
 10
7.162329999999968
 20
-10.0
 30
0.0
 11
13.06584499999999
 21
-10.0
 31
0.0
  0
ARC
  5
18FB
330
16C3
100
AcDbEntity
  8
MSR1-4
100
AcDbCircle
 10
10.0
 20
-10.0
 30
0.0
 40
2.0
100
AcDbArc
 50
89.999999
 51
0.0
  0
CIRCLE
  5
18FC
330
16C3
100
AcDbEntity
  8
MSR1-0
100
AcDbCircle
 10
10.0
 20
-10.0
 30
0.0
 40
1.649999999999999
  0
LINE
  5
18FD
330
16C3
100
AcDbEntity
  8
MSR1-7
100
AcDbLine
 10
0.0
 20
16.42726300000001
 30
0.0
 11
0.0
 21
-13.491006
 31
0.0
  0
CIRCLE
  5
18FE
330
16C3
100
AcDbEntity
  8
MSR1-0
100
AcDbCircle
 10
0.0
 20
-10.0
 30
0.0
 40
2.0
  0
LINE
  5
18FF
330
16C3
100
AcDbEntity
  8
MSR1-7
100
AcDbLine
 10
10.0
 20
-7.020948000000004
 30
0.0
 11
10.0
 21
-13.27172900000002
 31
0.0
  0
CIRCLE
  5
1900
330
16C3
100
AcDbEntity
  8
MSR1-0
100
AcDbCircle
 10
0.0
 20
10.0
 30
0.0
 40
2.0
  0
LINE
  5
1901
330
16C3
100
AcDbEntity
  8
MSR1-7
100
AcDbLine
 10
10.0
 20
12.97905200000002
 30
0.0
 11
10.0
 21
6.728271000000006
 31
0.0
  0
CIRCLE
  5
1902
330
16C3
100
AcDbEntity
  8
MSR1-0
100
AcDbCircle
 10
16.0
 20
0.0
 30
0.0
 40
3.5
  0
LINE
  5
1903
330
16C3
100
AcDbEntity
  8
MSR1-7
100
AcDbLine
 10
16.0
 20
5.670573000000018
 30
0.0
 11
16.0
 21
-5.441927000000021
 31
0.0
  0
CIRCLE
  5
1904
330
16C3
100
AcDbEntity
  8
MSR1-0
100
AcDbCircle
 10
16.0
 20
0.0
 30
0.0
 40
4.0
  0
POLYLINE
  5
1905
330
16C3
100
AcDbEntity
  8
MSR1-0
100
AcDb2dPolyline
 66
     1
 10
0.0
 20
0.0
 30
0.0
 70
     1
  0
VERTEX
  5
1906
330
1905
100
AcDbEntity
  8
MSR1-0
100
AcDbVertex
100
AcDb2dVertex
 10
16.86602499999998
 20
1.5
 30
0.0
  0
VERTEX
  5
1907
330
1905
100
AcDbEntity
  8
MSR1-0
100
AcDbVertex
100
AcDb2dVertex
 10
15.13397399999999
 20
1.5
 30
0.0
  0
VERTEX
  5
1908
330
1905
100
AcDbEntity
  8
MSR1-0
100
AcDbVertex
100
AcDb2dVertex
 10
14.26794899999999
 20
0.0
 30
0.0
  0
VERTEX
  5
1909
330
1905
100
AcDbEntity
  8
MSR1-0
100
AcDbVertex
100
AcDb2dVertex
 10
15.13397399999999
 20
-1.5
 30
0.0
  0
VERTEX
  5
190A
330
1905
100
AcDbEntity
  8
MSR1-0
100
AcDbVertex
100
AcDb2dVertex
 10
16.86602499999998
 20
-1.5
 30
0.0
  0
VERTEX
  5
190B
330
1905
100
AcDbEntity
  8
MSR1-0
100
AcDbVertex
100
AcDb2dVertex
 10
17.73205099999998
 20
0.0
 30
0.0
  0
VERTEX
  5
190C
330
1905
100
AcDbEntity
  8
MSR1-0
100
AcDbVertex
100
AcDb2dVertex
 10
16.86602499999998
 20
1.5
 30
0.0
  0
VERTEX
  5
190D
330
1905
100
AcDbEntity
  8
MSR1-0
100
AcDbVertex
100
AcDb2dVertex
 10
16.86602499999998
 20
1.5
 30
0.0
  0
SEQEND
  5
190E
330
1905
100
AcDbEntity
  8
MSR1-0
  0
ENDBLK
  5
1910
330
16C3
100
AcDbEntity
  8
MSR1-0
100
AcDbBlockEnd
  0
BLOCK
  5
1C48
330
1C46
100
AcDbEntity
  8
0
100
AcDbBlockBegin
  2
GENAXEH
 70
     0
 10
0.0
 20
0.0
 30
0.0
  3
GENAXEH
  1

  0
LINE
  5
1C47
330
1C46
100
AcDbEntity
  8
0
100
AcDbLine
 10
-1.0
 20
0.0
 30
0.0
 11
1.0
 21
0.0
 31
0.0
  0
ENDBLK
  5
1C49
330
1C46
100
AcDbEntity
  8
0
100
AcDbBlockEnd
  0
ENDSEC
  0
SECTION
  2
ENTITIES
  0
POLYLINE
  5
1915
330
19
100
AcDbEntity
  8
MSR1-4A
100
AcDb2dPolyline
 66
     1
 10
0.0
 20
0.0
 30
0.0
  0
VERTEX
  5
1916
330
1915
100
AcDbEntity
  8
MSR1-4A
100
AcDbVertex
100
AcDb2dVertex
 10
113.454334
 20
120.844014
 30
0.0
  0
VERTEX
  5
1917
330
1915
100
AcDbEntity
  8
MSR1-4A
100
AcDbVertex
100
AcDb2dVertex
 10
87.45433400000001
 20
120.844014
 30
0.0
  0
VERTEX
  5
1918
330
1915
100
AcDbEntity
  8
MSR1-4A
100
AcDbVertex
100
AcDb2dVertex
 10
87.45433400000001
 20
112.844014
 30
0.0
  0
VERTEX
  5
1919
330
1915
100
AcDbEntity
  8
MSR1-4A
100
AcDbVertex
100
AcDb2dVertex
 10
113.454334
 20
112.844014
 30
0.0
  0
SEQEND
  5
191A
330
1915
100
AcDbEntity
  8
MSR1-4A
  0
LINE
  5
191B
330
19
100
AcDbEntity
  8
MSR1-7
100
AcDbLine
 10
86.223527
 20
116.844014
 30
0.0
 11
113.454334
 21
116.844014
 31
0.0
  0
POLYLINE
  5
191C
330
19
100
AcDbEntity
  8
MSR1-4A
100
AcDb2dPolyline
 66
     1
 10
0.0
 20
0.0
 30
0.0
  0
VERTEX
  5
191D
330
191C
100
AcDbEntity
  8
MSR1-4A
100
AcDbVertex
100
AcDb2dVertex
 10
113.454334
 20
121.844014
 30
0.0
  0
VERTEX
  5
191E
330
191C
100
AcDbEntity
  8
MSR1-4A
100
AcDbVertex
100
AcDb2dVertex
 10
92.45433400000001
 20
121.844014
 30
0.0
  0
VERTEX
  5
191F
330
191C
100
AcDbEntity
  8
MSR1-4A
100
AcDbVertex
100
AcDb2dVertex
 10
92.45433400000001
 20
111.844014
 30
0.0
  0
VERTEX
  5
1920
330
191C
100
AcDbEntity
  8
MSR1-4A
100
AcDbVertex
100
AcDb2dVertex
 10
113.454334
 20
111.844014
 30
0.0
  0
SEQEND
  5
1921
330
191C
100
AcDbEntity
  8
MSR1-4A
  0
POLYLINE
  5
1923
330
19
100
AcDbEntity
  8
MSR1-0
100
AcDb2dPolyline
 66
     1
 10
0.0
 20
0.0
 30
0.0
 70
     1
  0
VERTEX
  5
1924
330
1923
100
AcDbEntity
  8
MSR1-0
100
AcDbVertex
100
AcDb2dVertex
 10
35.342709
 20
128.844014
 30
0.0
  0
VERTEX
  5
1925
330
1923
100
AcDbEntity
  8
MSR1-0
100
AcDbVertex
100
AcDb2dVertex
 10
65.342709
 20
128.844014
 30
0.0
  0
VERTEX
  5
1926
330
1923
100
AcDbEntity
  8
MSR1-0
100
AcDbVertex
100
AcDb2dVertex
 10
65.342709
 20
93.344014
 30
0.0
  0
VERTEX
  5
1927
330
1923
100
AcDbEntity
  8
MSR1-0
100
AcDbVertex
100
AcDb2dVertex
 10
35.342709
 20
93.344014
 30
0.0
  0
VERTEX
  5
1928
330
1923
100
AcDbEntity
  8
MSR1-0
100
AcDbVertex
100
AcDb2dVertex
 10
35.342709
 20
128.844014
 30
0.0
  0
SEQEND
  5
1929
330
1923
100
AcDbEntity
  8
MSR1-0
  0
LINE
  5
192A
330
19
100
AcDbEntity
  8
MSR1-7
100
AcDbLine
 10
50.342709
 20
148.487871
 30
0.0
 11
50.342709
 21
91.36912099999999
 31
0.0
  0
LINE
  5
192B
330
19
100
AcDbEntity
  8
MSR1-0
100
AcDbLine
 10
35.342709
 20
103.344014
 30
0.0
 11
65.342709
 21
103.344014
 31
0.0
  0
TEXT
  5
192C
330
19
100
AcDbEntity
  8
MSR1-6
100
AcDbText
 10
37.16661762857359
 20
95.17691386660196
 30
0.0
 40
2.0
  1
MSR1
100
AcDbText
  0
POLYLINE
  5
192D
330
19
100
AcDbEntity
  8
MSR1-0
100
AcDb2dPolyline
 66
     1
 10
0.0
 20
0.0
 30
0.0
 70
     1
  0
VERTEX
  5
192E
330
192D
100
AcDbEntity
  8
MSR1-0
100
AcDbVertex
100
AcDb2dVertex
 10
35.342709
 20
141.344014
 30
0.0
  0
VERTEX
  5
192F
330
192D
100
AcDbEntity
  8
MSR1-0
100
AcDbVertex
100
AcDb2dVertex
 10
65.342709
 20
141.344014
 30
0.0
  0
VERTEX
  5
1930
330
192D
100
AcDbEntity
  8
MSR1-0
100
AcDbVertex
100
AcDb2dVertex
 10
65.342709
 20
146.344014
 30
0.0
  0
VERTEX
  5
1931
330
192D
100
AcDbEntity
  8
MSR1-0
100
AcDbVertex
100
AcDb2dVertex
 10
35.342709
 20
146.344014
 30
0.0
  0
VERTEX
  5
1932
330
192D
100
AcDbEntity
  8
MSR1-0
100
AcDbVertex
100
AcDb2dVertex
 10
35.342709
 20
141.344014
 30
0.0
  0
SEQEND
  5
1933
330
192D
100
AcDbEntity
  8
MSR1-0
  0
POLYLINE
  5
1934
330
19
100
AcDbEntity
  8
MSR1-0
100
AcDb2dPolyline
 66
     1
 10
0.0
 20
0.0
 30
0.0
 70
     1
  0
VERTEX
  5
1935
330
1934
100
AcDbEntity
  8
MSR1-0
100
AcDbVertex
100
AcDb2dVertex
 10
35.342709
 20
132.344014
 30
0.0
  0
VERTEX
  5
1936
330
1934
100
AcDbEntity
  8
MSR1-0
100
AcDbVertex
100
AcDb2dVertex
 10
65.342709
 20
132.344014
 30
0.0
  0
VERTEX
  5
1937
330
1934
100
AcDbEntity
  8
MSR1-0
100
AcDbVertex
100
AcDb2dVertex
 10
65.342709
 20
129.844014
 30
0.0
  0
VERTEX
  5
1938
330
1934
100
AcDbEntity
  8
MSR1-0
100
AcDbVertex
100
AcDb2dVertex
 10
35.342709
 20
129.844014
 30
0.0
  0
VERTEX
  5
1939
330
1934
100
AcDbEntity
  8
MSR1-0
100
AcDbVertex
100
AcDb2dVertex
 10
35.342709
 20
132.344014
 30
0.0
  0
SEQEND
  5
193A
330
1934
100
AcDbEntity
  8
MSR1-0
  0
LINE
  5
193B
330
19
100
AcDbEntity
  8
MSR1-7
100
AcDbLine
 10
39.342709
 20
148.442514
 30
0.0
 11
39.342709
 21
139.721978
 31
0.0
  0
LINE
  5
193C
330
19
100
AcDbEntity
  8
MSR1-7
100
AcDbLine
 10
45.342709
 20
142.383618
 30
0.0
 11
45.342709
 21
131.281951
 31
0.0
  0
LINE
  5
193D
330
19
100
AcDbEntity
  8
MSR1-0
100
AcDbLine
 10
35.342709
 20
132.344014
 30
0.0
 11
35.342709
 21
141.344014
 31
0.0
  0
LINE
  5
193E
330
19
100
AcDbEntity
  8
MSR1-0
100
AcDbLine
 10
41.34270899999999
 20
141.344014
 30
0.0
 11
41.34270899999999
 21
132.344014
 31
0.0
  0
LINE
  5
193F
330
19
100
AcDbEntity
  8
MSR1-0
100
AcDbLine
 10
35.342709
 20
128.844014
 30
0.0
 11
35.342709
 21
129.844014
 31
0.0
  0
LINE
  5
1940
330
19
100
AcDbEntity
  8
MSR1-7
100
AcDbLine
 10
61.342709
 20
147.762157
 30
0.0
 11
61.342709
 21
139.835371
 31
0.0
  0
LINE
  5
1941
330
19
100
AcDbEntity
  8
MSR1-0
100
AcDbLine
 10
59.342709
 20
141.344014
 30
0.0
 11
59.342709
 21
132.344014
 31
0.0
  0
LINE
  5
1942
330
19
100
AcDbEntity
  8
MSR1-0
100
AcDbLine
 10
49.342709
 20
141.344014
 30
0.0
 11
49.342709
 21
132.344014
 31
0.0
  0
LINE
  5
1943
330
19
100
AcDbEntity
  8
MSR1-0
100
AcDbLine
 10
51.342709
 20
141.344014
 30
0.0
 11
51.342709
 21
132.344014
 31
0.0
  0
LINE
  5
1944
330
19
100
AcDbEntity
  8
MSR1-7
100
AcDbLine
 10
55.342709
 20
142.436534
 30
0.0
 11
55.342709
 21
131.070284
 31
0.0
  0
LINE
  5
1945
330
19
100
AcDbEntity
  8
MSR1-0
100
AcDbLine
 10
65.342709
 20
141.344014
 30
0.0
 11
65.342709
 21
132.344014
 31
0.0
  0
LINE
  5
1946
330
19
100
AcDbEntity
  8
MSR1-0
100
AcDbLine
 10
65.342709
 20
129.844014
 30
0.0
 11
65.342709
 21
128.844014
 31
0.0
  0
LINE
  5
1947
330
19
100
AcDbEntity
  8
MSR1-7
100
AcDbLine
 10
153.254334
 20
149.433551
 30
0.0
 11
153.254334
 21
89.834972
 31
0.0
  0
POLYLINE
  5
1948
330
19
100
AcDbEntity
  8
MSR1-0
100
AcDb2dPolyline
 66
     1
 10
0.0
 20
0.0
 30
0.0
 70
     1
  0
VERTEX
  5
1949
330
1948
100
AcDbEntity
  8
MSR1-0
100
AcDbVertex
100
AcDb2dVertex
 10
124.954334
 20
121.240331
 30
0.0
  0
VERTEX
  5
194A
330
1948
100
AcDbEntity
  8
MSR1-0
100
AcDbVertex
100
AcDb2dVertex
 10
124.954334
 20
103.344014
 30
0.0
  0
VERTEX
  5
194B
330
1948
100
AcDbEntity
  8
MSR1-0
100
AcDbVertex
100
AcDb2dVertex
 10
117.454334
 20
103.344014
 30
0.0
  0
VERTEX
  5
194C
330
1948
100
AcDbEntity
  8
MSR1-0
100
AcDbVertex
100
AcDb2dVertex
 10
117.454334
 20
128.844014
 30
0.0
  0
VERTEX
  5
194D
330
1948
100
AcDbEntity
  8
MSR1-0
100
AcDbVertex
100
AcDb2dVertex
 10
124.954334
 20
128.844014
 30
0.0
  0
VERTEX
  5
194E
330
1948
100
AcDbEntity
  8
MSR1-0
100
AcDbVertex
100
AcDb2dVertex
 10
124.954334
 20
121.240331
 30
0.0
  0
VERTEX
  5
194F
330
1948
100
AcDbEntity
  8
MSR1-0
100
AcDbVertex
100
AcDb2dVertex
 10
124.954334
 20
121.240331
 30
0.0
  0
SEQEND
  5
1950
330
1948
100
AcDbEntity
  8
MSR1-0
  0
LINE
  5
1951
330
19
100
AcDbEntity
  8
MSR1-4
100
AcDbLine
 10
113.454334
 20
116.844014
 30
0.0
 11
117.454334
 21
123.344014
 31
0.0
  0
LINE
  5
1952
330
19
100
AcDbEntity
  8
MSR1-4
100
AcDbLine
 10
113.454334
 20
123.344014
 30
0.0
 11
117.454334
 21
116.844014
 31
0.0
  0
POLYLINE
  5
1953
330
19
100
AcDbEntity
  8
MSR1-0
100
AcDb2dPolyline
 66
     1
 10
0.0
 20
0.0
 30
0.0
  0
VERTEX
  5
1954
330
1953
100
AcDbEntity
  8
MSR1-0
100
AcDbVertex
100
AcDb2dVertex
 10
117.454334
 20
123.344014
 30
0.0
  0
VERTEX
  5
1955
330
1953
100
AcDbEntity
  8
MSR1-0
100
AcDbVertex
100
AcDb2dVertex
 10
113.454334
 20
123.344014
 30
0.0
  0
VERTEX
  5
1956
330
1953
100
AcDbEntity
  8
MSR1-0
100
AcDbVertex
100
AcDb2dVertex
 10
113.454334
 20
110.344014
 30
0.0
  0
VERTEX
  5
1957
330
1953
100
AcDbEntity
  8
MSR1-0
100
AcDbVertex
100
AcDb2dVertex
 10
117.454334
 20
110.344014
 30
0.0
  0
SEQEND
  5
1958
330
1953
100
AcDbEntity
  8
MSR1-0
  0
POLYLINE
  5
1959
330
19
100
AcDbEntity
  8
MSR1-0
100
AcDb2dPolyline
 66
     1
 10
0.0
 20
0.0
 30
0.0
  0
VERTEX
  5
195A
330
1959
100
AcDbEntity
  8
MSR1-0
100
AcDbVertex
100
AcDb2dVertex
 10
136.954334
 20
128.5440139999999
 30
0.0
  0
VERTEX
  5
195B
330
1959
100
AcDbEntity
  8
MSR1-0
100
AcDbVertex
100
AcDb2dVertex
 10
183.454334
 20
128.5440139999999
 30
0.0
  0
VERTEX
  5
195C
330
1959
100
AcDbEntity
  8
MSR1-0
100
AcDbVertex
100
AcDb2dVertex
 10
183.454334
 20
103.344014
 30
0.0
  0
VERTEX
  5
195D
330
1959
100
AcDbEntity
  8
MSR1-0
100
AcDbVertex
100
AcDb2dVertex
 10
124.954334
 20
103.344014
 30
0.0
  0
SEQEND
  5
195E
330
1959
100
AcDbEntity
  8
MSR1-0
  0
CIRCLE
  5
195F
330
19
100
AcDbEntity
  8
MSR1-0
100
AcDbCircle
 10
153.254334
 20
57.89026103527724
 30
0.0
 40
4.5
  0
LINE
  5
1960
330
19
100
AcDbEntity
  8
MSR1-7
100
AcDbLine
 10
147.381056
 20
57.89026103527724
 30
0.0
 11
171.555905
 21
57.89026103527724
 31
0.0
  0
POLYLINE
  5
1961
330
19
100
AcDbEntity
  8
MSR1-0
100
AcDb2dPolyline
 66
     1
 10
0.0
 20
0.0
 30
0.0
 70
     1
  0
VERTEX
  5
1962
330
1961
100
AcDbEntity
  8
MSR1-0
100
AcDbVertex
100
AcDb2dVertex
 10
138.254334
 20
72.89026103527724
 30
0.0
  0
VERTEX
  5
1963
330
1961
100
AcDbEntity
  8
MSR1-0
100
AcDbVertex
100
AcDb2dVertex
 10
168.254334
 20
72.89026103527724
 30
0.0
  0
VERTEX
  5
1964
330
1961
100
AcDbEntity
  8
MSR1-0
100
AcDbVertex
100
AcDb2dVertex
 10
168.254334
 20
42.89026103527726
 30
0.0
  0
VERTEX
  5
1965
330
1961
100
AcDbEntity
  8
MSR1-0
100
AcDbVertex
100
AcDb2dVertex
 10
138.254334
 20
42.89026103527726
 30
0.0
  0
VERTEX
  5
1966
330
1961
100
AcDbEntity
  8
MSR1-0
100
AcDbVertex
100
AcDb2dVertex
 10
138.254334
 20
72.89026103527724
 30
0.0
  0
SEQEND
  5
1967
330
1961
100
AcDbEntity
  8
MSR1-0
  0
POLYLINE
  5
1968
330
19
100
AcDbEntity
  8
MSR1-0
100
AcDb2dPolyline
 66
     1
 10
0.0
 20
0.0
 30
0.0
  0
VERTEX
  5
1969
330
1968
100
AcDbEntity
  8
MSR1-0
100
AcDbVertex
100
AcDb2dVertex
 10
183.454334
 20
103.344014
 30
0.0
  0
VERTEX
  5
196A
330
1968
100
AcDbEntity
  8
MSR1-0
100
AcDbVertex
100
AcDb2dVertex
 10
183.454334
 20
93.344014
 30
0.0
  0
VERTEX
  5
196B
330
1968
100
AcDbEntity
  8
MSR1-0
100
AcDbVertex
100
AcDb2dVertex
 10
117.454334
 20
93.344014
 30
0.0
  0
VERTEX
  5
196C
330
1968
100
AcDbEntity
  8
MSR1-0
100
AcDbVertex
100
AcDb2dVertex
 10
117.454334
 20
103.344014
 30
0.0
  0
SEQEND
  5
196D
330
1968
100
AcDbEntity
  8
MSR1-0
  0
CIRCLE
  5
196E
330
19
100
AcDbEntity
  8
MSR1-0
100
AcDbCircle
 10
142.254334
 20
46.89026103527726
 30
0.0
 40
3.5
  0
ARC
  5
196F
330
19
100
AcDbEntity
  8
MSR1-4
100
AcDbCircle
 10
142.254334
 20
46.89026103527726
 30
0.0
 40
2.5
100
AcDbArc
 50
89.999999
 51
0.0
  0
CIRCLE
  5
1970
330
19
100
AcDbEntity
  8
MSR1-0
100
AcDbCircle
 10
142.254334
 20
46.89026103527726
 30
0.0
 40
2.1
  0
LINE
  5
1971
330
19
100
AcDbEntity
  8
MSR1-7
100
AcDbLine
 10
142.254334
 20
51.49533803527724
 30
0.0
 11
142.254334
 21
42.62518203527725
 31
0.0
  0
LINE
  5
1972
330
19
100
AcDbEntity
  8
MSR1-4
100
AcDbLine
 10
103.454334
 20
48.89026103527725
 30
0.0
 11
110.954334
 21
44.89026103527726
 31
0.0
  0
LINE
  5
1973
330
19
100
AcDbEntity
  8
MSR1-4
100
AcDbLine
 10
110.954334
 20
48.89026103527725
 30
0.0
 11
103.454334
 21
44.89026103527726
 31
0.0
  0
LINE
  5
1974
330
19
100
AcDbEntity
  8
MSR1-0
100
AcDbLine
 10
124.954334
 20
72.89026103527724
 30
0.0
 11
124.954334
 21
42.89026103527726
 31
0.0
  0
LINE
  5
1975
330
19
100
AcDbEntity
  8
MSR1-0
100
AcDbLine
 10
123.954334
 20
72.89026103527724
 30
0.0
 11
123.954334
 21
42.89026103527726
 31
0.0
  0
LINE
  5
1976
330
19
100
AcDbEntity
  8
MSR1-0
100
AcDbLine
 10
131.954334
 20
72.89026103527724
 30
0.0
 11
131.954334
 21
42.89026103527726
 31
0.0
  0
LINE
  5
1977
330
19
100
AcDbEntity
  8
MSR1-0
100
AcDbLine
 10
110.954334
 20
44.89026103527726
 30
0.0
 11
110.954334
 21
52.89026103527724
 31
0.0
  0
POLYLINE
  5
1978
330
19
100
AcDbEntity
  8
MSR1-0
100
AcDb2dPolyline
 66
     1
 10
0.0
 20
0.0
 30
0.0
 70
     1
  0
VERTEX
  5
1979
330
1978
100
AcDbEntity
  8
MSR1-0
100
AcDbVertex
100
AcDb2dVertex
 10
110.954334
 20
44.89026103527726
 30
0.0
  0
VERTEX
  5
197A
330
1978
100
AcDbEntity
  8
MSR1-0
100
AcDbVertex
100
AcDb2dVertex
 10
103.454334
 20
44.89026103527726
 30
0.0
  0
VERTEX
  5
197B
330
1978
100
AcDbEntity
  8
MSR1-0
100
AcDbVertex
100
AcDb2dVertex
 10
103.454334
 20
52.89026103527724
 30
0.0
  0
VERTEX
  5
197C
330
1978
100
AcDbEntity
  8
MSR1-0
100
AcDbVertex
100
AcDb2dVertex
 10
110.954334
 20
52.89026103527724
 30
0.0
  0
VERTEX
  5
197D
330
1978
100
AcDbEntity
  8
MSR1-0
100
AcDbVertex
100
AcDb2dVertex
 10
110.954334
 20
53.39026103527725
 30
0.0
  0
VERTEX
  5
197E
330
1978
100
AcDbEntity
  8
MSR1-0
100
AcDbVertex
100
AcDb2dVertex
 10
117.454334
 20
53.39026103527725
 30
0.0
  0
VERTEX
  5
197F
330
1978
100
AcDbEntity
  8
MSR1-0
100
AcDbVertex
100
AcDb2dVertex
 10
117.454334
 20
44.39026103527726
 30
0.0
  0
VERTEX
  5
1980
330
1978
100
AcDbEntity
  8
MSR1-0
100
AcDbVertex
100
AcDb2dVertex
 10
110.954334
 20
44.39026103527726
 30
0.0
  0
VERTEX
  5
1981
330
1978
100
AcDbEntity
  8
MSR1-0
100
AcDbVertex
100
AcDb2dVertex
 10
110.954334
 20
44.89026103527726
 30
0.0
  0
SEQEND
  5
1982
330
1978
100
AcDbEntity
  8
MSR1-0
  0
LINE
  5
1983
330
19
100
AcDbEntity
  8
MSR1-0
100
AcDbLine
 10
118.954334
 20
72.89026103527724
 30
0.0
 11
118.954334
 21
42.89026103527726
 31
0.0
  0
POLYLINE
  5
1984
330
19
100
AcDbEntity
  8
MSR1-0
100
AcDb2dPolyline
 66
     1
 10
0.0
 20
0.0
 30
0.0
  0
VERTEX
  5
1985
330
1984
100
AcDbEntity
  8
MSR1-0
100
AcDbVertex
100
AcDb2dVertex
 10
138.254334
 20
72.89026103527724
 30
0.0
  0
VERTEX
  5
1986
330
1984
100
AcDbEntity
  8
MSR1-0
100
AcDbVertex
100
AcDb2dVertex
 10
117.454334
 20
72.89026103527724
 30
0.0
  0
VERTEX
  5
1987
330
1984
100
AcDbEntity
  8
MSR1-0
100
AcDbVertex
100
AcDb2dVertex
 10
117.454334
 20
42.89026103527726
 30
0.0
  0
VERTEX
  5
1988
330
1984
100
AcDbEntity
  8
MSR1-0
100
AcDbVertex
100
AcDb2dVertex
 10
138.254334
 20
42.89026103527726
 30
0.0
  0
SEQEND
  5
1989
330
1984
100
AcDbEntity
  8
MSR1-0
  0
POLYLINE
  5
198A
330
19
100
AcDbEntity
  8
MSR1-0
100
AcDb2dPolyline
 66
     1
 10
0.0
 20
0.0
 30
0.0
  0
VERTEX
  5
198B
330
198A
100
AcDbEntity
  8
MSR1-0
100
AcDbVertex
100
AcDb2dVertex
 10
113.454334
 20
44.39026103527726
 30
0.0
  0
VERTEX
  5
198C
330
198A
100
AcDbEntity
  8
MSR1-0
100
AcDbVertex
100
AcDb2dVertex
 10
113.454334
 20
43.39026103527726
 30
0.0
  0
VERTEX
  5
198D
330
198A
100
AcDbEntity
  8
MSR1-0
100
AcDbVertex
100
AcDb2dVertex
 10
117.454334
 20
43.39026103527726
 30
0.0
  0
SEQEND
  5
198E
330
198A
100
AcDbEntity
  8
MSR1-0
  0
LINE
  5
198F
330
19
100
AcDbEntity
  8
MSR1-4
100
AcDbLine
 10
114.069718
 20
44.39026103527726
 30
0.0
 11
113.454334
 21
43.39026103527726
 31
0.0
  0
LINE
  5
1990
330
19
100
AcDbEntity
  8
MSR1-4
100
AcDbLine
 10
116.838949
 20
44.39026103527726
 30
0.0
 11
117.454334
 21
43.39026103527726
 31
0.0
  0
TEXT
  5
1991
330
19
100
AcDbEntity
  8
MSR1-6
100
AcDbText
 10
119.2782426285736
 20
95.17691386660196
 30
0.0
 40
2.0
  1
MSR1
100
AcDbText
  0
LINE
  5
1992
330
19
100
AcDbEntity
  8
MSR1-3
100
AcDbLine
 10
118.954334
 20
63.89026103527725
 30
0.0
 11
123.954334
 21
63.89026103527725
 31
0.0
  0
LINE
  5
1993
330
19
100
AcDbEntity
  8
MSR1-3
100
AcDbLine
 10
118.954334
 20
64.39026103527725
 30
0.0
 11
123.954334
 21
64.39026103527725
 31
0.0
  0
LINE
  5
1994
330
19
100
AcDbEntity
  8
MSR1-3
100
AcDbLine
 10
118.954334
 20
69.89026103527725
 30
0.0
 11
123.954334
 21
69.89026103527725
 31
0.0
  0
LINE
  5
1995
330
19
100
AcDbEntity
  8
MSR1-3
100
AcDbLine
 10
118.954334
 20
69.39026103527725
 30
0.0
 11
123.954334
 21
69.39026103527725
 31
0.0
  0
LINE
  5
1996
330
19
100
AcDbEntity
  8
MSR1-3
100
AcDbLine
 10
118.954334
 20
51.39026103527725
 30
0.0
 11
123.954334
 21
51.39026103527725
 31
0.0
  0
LINE
  5
1997
330
19
100
AcDbEntity
  8
MSR1-3
100
AcDbLine
 10
118.954334
 20
51.89026103527725
 30
0.0
 11
123.954334
 21
51.89026103527725
 31
0.0
  0
LINE
  5
1998
330
19
100
AcDbEntity
  8
MSR1-3
100
AcDbLine
 10
118.954334
 20
45.89026103527726
 30
0.0
 11
123.954334
 21
45.89026103527726
 31
0.0
  0
LINE
  5
1999
330
19
100
AcDbEntity
  8
MSR1-3
100
AcDbLine
 10
118.954334
 20
46.39026103527726
 30
0.0
 11
123.954334
 21
46.39026103527726
 31
0.0
  0
LINE
  5
199A
330
19
100
AcDbEntity
  8
MSR1-7
100
AcDbLine
 10
100.332579
 20
48.89026103527725
 30
0.0
 11
139.522423
 21
48.89026103527725
 31
0.0
  0
LINE
  5
199B
330
19
100
AcDbEntity
  8
MSR1-7
100
AcDbLine
 10
100.332579
 20
66.89026103527725
 30
0.0
 11
139.522423
 21
66.89026103527725
 31
0.0
  0
LINE
  5
199C
330
19
100
AcDbEntity
  8
MSR1-4
100
AcDbLine
 10
103.454334
 20
66.89026103527725
 30
0.0
 11
110.954334
 21
70.89026103527725
 31
0.0
  0
LINE
  5
199D
330
19
100
AcDbEntity
  8
MSR1-4
100
AcDbLine
 10
103.454334
 20
70.89026103527725
 30
0.0
 11
110.954334
 21
66.89026103527725
 31
0.0
  0
LINE
  5
199E
330
19
100
AcDbEntity
  8
MSR1-0
100
AcDbLine
 10
103.454334
 20
66.89026103527725
 30
0.0
 11
110.954334
 21
66.89026103527725
 31
0.0
  0
LINE
  5
199F
330
19
100
AcDbEntity
  8
MSR1-4
100
AcDbLine
 10
110.954334
 20
66.89026103527725
 30
0.0
 11
103.454334
 21
62.89026103527724
 31
0.0
  0
LINE
  5
19A0
330
19
100
AcDbEntity
  8
MSR1-4
100
AcDbLine
 10
103.454334
 20
66.89026103527725
 30
0.0
 11
110.954334
 21
62.89026103527724
 31
0.0
  0
POLYLINE
  5
19A1
330
19
100
AcDbEntity
  8
MSR1-0
100
AcDb2dPolyline
 66
     1
 10
0.0
 20
0.0
 30
0.0
 70
     1
  0
VERTEX
  5
19A2
330
19A1
100
AcDbEntity
  8
MSR1-0
100
AcDbVertex
100
AcDb2dVertex
 10
110.954334
 20
62.89026103527724
 30
0.0
  0
VERTEX
  5
19A3
330
19A1
100
AcDbEntity
  8
MSR1-0
100
AcDbVertex
100
AcDb2dVertex
 10
103.454334
 20
62.89026103527724
 30
0.0
  0
VERTEX
  5
19A4
330
19A1
100
AcDbEntity
  8
MSR1-0
100
AcDbVertex
100
AcDb2dVertex
 10
103.454334
 20
70.89026103527725
 30
0.0
  0
VERTEX
  5
19A5
330
19A1
100
AcDbEntity
  8
MSR1-0
100
AcDbVertex
100
AcDb2dVertex
 10
110.954334
 20
70.89026103527725
 30
0.0
  0
VERTEX
  5
19A6
330
19A1
100
AcDbEntity
  8
MSR1-0
100
AcDbVertex
100
AcDb2dVertex
 10
110.954334
 20
71.39026103527725
 30
0.0
  0
VERTEX
  5
19A7
330
19A1
100
AcDbEntity
  8
MSR1-0
100
AcDbVertex
100
AcDb2dVertex
 10
117.454334
 20
71.39026103527725
 30
0.0
  0
VERTEX
  5
19A8
330
19A1
100
AcDbEntity
  8
MSR1-0
100
AcDbVertex
100
AcDb2dVertex
 10
117.454334
 20
62.39026103527725
 30
0.0
  0
VERTEX
  5
19A9
330
19A1
100
AcDbEntity
  8
MSR1-0
100
AcDbVertex
100
AcDb2dVertex
 10
110.954334
 20
62.39026103527725
 30
0.0
  0
VERTEX
  5
19AA
330
19A1
100
AcDbEntity
  8
MSR1-0
100
AcDbVertex
100
AcDb2dVertex
 10
110.954334
 20
62.89026103527724
 30
0.0
  0
SEQEND
  5
19AB
330
19A1
100
AcDbEntity
  8
MSR1-0
  0
LINE
  5
19AC
330
19
100
AcDbEntity
  8
MSR1-0
100
AcDbLine
 10
103.454334
 20
48.89026103527725
 30
0.0
 11
110.954334
 21
48.89026103527725
 31
0.0
  0
LINE
  5
19AD
330
19
100
AcDbEntity
  8
MSR1-4
100
AcDbLine
 10
103.454334
 20
52.89026103527724
 30
0.0
 11
110.954334
 21
48.89026103527725
 31
0.0
  0
LINE
  5
19AE
330
19
100
AcDbEntity
  8
MSR1-4
100
AcDbLine
 10
103.454334
 20
48.89026103527725
 30
0.0
 11
110.954334
 21
52.89026103527724
 31
0.0
  0
LINE
  5
19AF
330
19
100
AcDbEntity
  8
MSR1-0
100
AcDbLine
 10
110.954334
 20
62.89026103527724
 30
0.0
 11
110.954334
 21
70.89026103527725
 31
0.0
  0
LINE
  5
19B0
330
19
100
AcDbEntity
  8
MSR1-4
100
AcDbLine
 10
113.454334
 20
56.39026103527725
 30
0.0
 11
115.300488
 21
53.39026103527725
 31
0.0
  0
LINE
  5
19B1
330
19
100
AcDbEntity
  8
MSR1-4
100
AcDbLine
 10
115.300488
 20
62.39026103527725
 30
0.0
 11
113.454334
 21
59.39026103527725
 31
0.0
  0
POLYLINE
  5
19B2
330
19
100
AcDbEntity
  8
MSR1-0
100
AcDb2dPolyline
 66
     1
 10
0.0
 20
0.0
 30
0.0
  0
VERTEX
  5
19B3
330
19B2
100
AcDbEntity
  8
MSR1-0
100
AcDbVertex
100
AcDb2dVertex
 10
117.454334
 20
56.39026103527725
 30
0.0
  0
VERTEX
  5
19B4
330
19B2
100
AcDbEntity
  8
MSR1-0
100
AcDbVertex
100
AcDb2dVertex
 10
113.454334
 20
56.39026103527725
 30
0.0
  0
VERTEX
  5
19B5
330
19B2
100
AcDbEntity
  8
MSR1-0
100
AcDbVertex
100
AcDb2dVertex
 10
113.454334
 20
53.39026103527725
 30
0.0
  0
SEQEND
  5
19B6
330
19B2
100
AcDbEntity
  8
MSR1-0
  0
POLYLINE
  5
19B7
330
19
100
AcDbEntity
  8
MSR1-0
100
AcDb2dPolyline
 66
     1
 10
0.0
 20
0.0
 30
0.0
  0
VERTEX
  5
19B8
330
19B7
100
AcDbEntity
  8
MSR1-0
100
AcDbVertex
100
AcDb2dVertex
 10
113.454334
 20
62.39026103527725
 30
0.0
  0
VERTEX
  5
19B9
330
19B7
100
AcDbEntity
  8
MSR1-0
100
AcDbVertex
100
AcDb2dVertex
 10
113.454334
 20
59.39026103527725
 30
0.0
  0
VERTEX
  5
19BA
330
19B7
100
AcDbEntity
  8
MSR1-0
100
AcDbVertex
100
AcDb2dVertex
 10
117.454334
 20
59.39026103527725
 30
0.0
  0
SEQEND
  5
19BB
330
19B7
100
AcDbEntity
  8
MSR1-0
  0
LINE
  5
19BC
330
19
100
AcDbEntity
  8
MSR1-4
100
AcDbLine
 10
117.454334
 20
56.39026103527725
 30
0.0
 11
115.60818
 21
53.39026103527725
 31
0.0
  0
LINE
  5
19BD
330
19
100
AcDbEntity
  8
MSR1-4
100
AcDbLine
 10
117.454334
 20
51.89026103527725
 30
0.0
 11
118.954334
 21
51.89026103527725
 31
0.0
  0
LINE
  5
19BE
330
19
100
AcDbEntity
  8
MSR1-0
100
AcDbLine
 10
117.454334
 20
51.39026103527725
 30
0.0
 11
118.954334
 21
51.39026103527725
 31
0.0
  0
LINE
  5
19BF
330
19
100
AcDbEntity
  8
MSR1-4
100
AcDbLine
 10
117.454334
 20
45.89026103527726
 30
0.0
 11
118.954334
 21
45.89026103527726
 31
0.0
  0
LINE
  5
19C0
330
19
100
AcDbEntity
  8
MSR1-0
100
AcDbLine
 10
117.454334
 20
46.39026103527726
 30
0.0
 11
118.954334
 21
46.39026103527726
 31
0.0
  0
LINE
  5
19C1
330
19
100
AcDbEntity
  8
MSR1-4
100
AcDbLine
 10
117.454334
 20
63.89026103527725
 30
0.0
 11
118.954334
 21
63.89026103527725
 31
0.0
  0
LINE
  5
19C2
330
19
100
AcDbEntity
  8
MSR1-0
100
AcDbLine
 10
117.454334
 20
64.39026103527725
 30
0.0
 11
118.954334
 21
64.39026103527725
 31
0.0
  0
LINE
  5
19C3
330
19
100
AcDbEntity
  8
MSR1-4
100
AcDbLine
 10
115.60818
 20
62.39026103527725
 30
0.0
 11
117.454334
 21
59.39026103527725
 31
0.0
  0
POLYLINE
  5
19C4
330
19
100
AcDbEntity
  8
MSR1-0
100
AcDb2dPolyline
 66
     1
 10
0.0
 20
0.0
 30
0.0
  0
VERTEX
  5
19C5
330
19C4
100
AcDbEntity
  8
MSR1-0
100
AcDbVertex
100
AcDb2dVertex
 10
117.454334
 20
72.39026103527725
 30
0.0
  0
VERTEX
  5
19C6
330
19C4
100
AcDbEntity
  8
MSR1-0
100
AcDbVertex
100
AcDb2dVertex
 10
113.454334
 20
72.39026103527725
 30
0.0
  0
VERTEX
  5
19C7
330
19C4
100
AcDbEntity
  8
MSR1-0
100
AcDbVertex
100
AcDb2dVertex
 10
113.454334
 20
71.39026103527725
 30
0.0
  0
SEQEND
  5
19C8
330
19C4
100
AcDbEntity
  8
MSR1-0
  0
LINE
  5
19C9
330
19
100
AcDbEntity
  8
MSR1-4
100
AcDbLine
 10
113.454334
 20
72.39026103527725
 30
0.0
 11
114.069718
 21
71.39026103527725
 31
0.0
  0
LINE
  5
19CA
330
19
100
AcDbEntity
  8
MSR1-4
100
AcDbLine
 10
117.454334
 20
69.89026103527725
 30
0.0
 11
118.954334
 21
69.89026103527725
 31
0.0
  0
LINE
  5
19CB
330
19
100
AcDbEntity
  8
MSR1-0
100
AcDbLine
 10
117.454334
 20
69.39026103527725
 30
0.0
 11
118.954334
 21
69.39026103527725
 31
0.0
  0
LINE
  5
19CC
330
19
100
AcDbEntity
  8
MSR1-4
100
AcDbLine
 10
116.838949
 20
71.39026103527725
 30
0.0
 11
117.454334
 21
72.39026103527725
 31
0.0
  0
LINE
  5
19CD
330
19
100
AcDbEntity
  8
MSR1-0
100
AcDbLine
 10
113.454334
 20
116.844014
 30
0.0
 11
117.454334
 21
116.844014
 31
0.0
  0
LINE
  5
19CE
330
19
100
AcDbEntity
  8
MSR1-4
100
AcDbLine
 10
117.454334
 20
116.844014
 30
0.0
 11
113.454334
 21
110.344014
 31
0.0
  0
LINE
  5
19CF
330
19
100
AcDbEntity
  8
MSR1-4
100
AcDbLine
 10
113.454334
 20
116.844014
 30
0.0
 11
117.454334
 21
110.344014
 31
0.0
  0
LINE
  5
19D0
330
19
100
AcDbEntity
  8
MSR1-4
100
AcDbLine
 10
131.954334
 20
69.89026103527725
 30
0.0
 11
138.254334
 21
69.89026103527725
 31
0.0
  0
LINE
  5
19D1
330
19
100
AcDbEntity
  8
MSR1-0
100
AcDbLine
 10
131.954334
 20
69.39026103527725
 30
0.0
 11
138.254334
 21
69.39026103527725
 31
0.0
  0
LINE
  5
19D2
330
19
100
AcDbEntity
  8
MSR1-4
100
AcDbLine
 10
131.954334
 20
45.89026103527726
 30
0.0
 11
138.254334
 21
45.89026103527726
 31
0.0
  0
LINE
  5
19D3
330
19
100
AcDbEntity
  8
MSR1-0
100
AcDbLine
 10
131.954334
 20
46.39026103527726
 30
0.0
 11
138.254334
 21
46.39026103527726
 31
0.0
  0
LINE
  5
19D4
330
19
100
AcDbEntity
  8
MSR1-0
100
AcDbLine
 10
131.979397
 20
51.39026103527725
 30
0.0
 11
138.254334
 21
51.39026103527725
 31
0.0
  0
LINE
  5
19D5
330
19
100
AcDbEntity
  8
MSR1-4
100
AcDbLine
 10
131.954334
 20
51.89026103527725
 30
0.0
 11
138.254334
 21
51.89026103527725
 31
0.0
  0
LINE
  5
19D6
330
19
100
AcDbEntity
  8
MSR1-4
100
AcDbLine
 10
131.954334
 20
63.89026103527725
 30
0.0
 11
138.254334
 21
63.89026103527725
 31
0.0
  0
LINE
  5
19D7
330
19
100
AcDbEntity
  8
MSR1-0
100
AcDbLine
 10
131.979397
 20
64.39026103527725
 30
0.0
 11
138.254334
 21
64.39026103527725
 31
0.0
  0
LINE
  5
19D8
330
19
100
AcDbEntity
  8
MSR1-3
100
AcDbLine
 10
124.954334
 20
51.89026103527725
 30
0.0
 11
131.954334
 21
51.89026103527725
 31
0.0
  0
LINE
  5
19D9
330
19
100
AcDbEntity
  8
MSR1-3
100
AcDbLine
 10
124.954334
 20
63.89026103527725
 30
0.0
 11
132.055354
 21
63.89026103527725
 31
0.0
  0
LINE
  5
19DA
330
19
100
AcDbEntity
  8
MSR1-3
100
AcDbLine
 10
124.954334
 20
64.39026103527725
 30
0.0
 11
131.979397
 21
64.39026103527725
 31
0.0
  0
LINE
  5
19DB
330
19
100
AcDbEntity
  8
MSR1-3
100
AcDbLine
 10
124.954334
 20
51.39026103527725
 30
0.0
 11
131.954334
 21
51.39026103527725
 31
0.0
  0
LINE
  5
19DC
330
19
100
AcDbEntity
  8
MSR1-3
100
AcDbLine
 10
124.954334
 20
45.89026103527726
 30
0.0
 11
132.055354
 21
45.89026103527726
 31
0.0
  0
LINE
  5
19DD
330
19
100
AcDbEntity
  8
MSR1-3
100
AcDbLine
 10
124.954334
 20
46.39026103527726
 30
0.0
 11
131.979397
 21
46.39026103527726
 31
0.0
  0
LINE
  5
19DE
330
19
100
AcDbEntity
  8
MSR1-4
100
AcDbLine
 10
123.954334
 20
45.89026103527726
 30
0.0
 11
124.954334
 21
45.89026103527726
 31
0.0
  0
LINE
  5
19DF
330
19
100
AcDbEntity
  8
MSR1-0
100
AcDbLine
 10
123.954334
 20
46.39026103527726
 30
0.0
 11
124.954334
 21
46.39026103527726
 31
0.0
  0
LINE
  5
19E0
330
19
100
AcDbEntity
  8
MSR1-4
100
AcDbLine
 10
123.954334
 20
51.89026103527725
 30
0.0
 11
124.954334
 21
51.89026103527725
 31
0.0
  0
LINE
  5
19E1
330
19
100
AcDbEntity
  8
MSR1-0
100
AcDbLine
 10
123.954334
 20
51.39026103527725
 30
0.0
 11
124.954334
 21
51.39026103527725
 31
0.0
  0
LINE
  5
19E2
330
19
100
AcDbEntity
  8
MSR1-4
100
AcDbLine
 10
123.954334
 20
63.89026103527725
 30
0.0
 11
124.954334
 21
63.89026103527725
 31
0.0
  0
LINE
  5
19E3
330
19
100
AcDbEntity
  8
MSR1-0
100
AcDbLine
 10
123.954334
 20
64.39026103527725
 30
0.0
 11
124.954334
 21
64.39026103527725
 31
0.0
  0
LINE
  5
19E4
330
19
100
AcDbEntity
  8
MSR1-3
100
AcDbLine
 10
124.954334
 20
69.89026103527725
 30
0.0
 11
131.954334
 21
69.89026103527725
 31
0.0
  0
LINE
  5
19E5
330
19
100
AcDbEntity
  8
MSR1-3
100
AcDbLine
 10
124.954334
 20
69.39026103527725
 30
0.0
 11
131.954334
 21
69.39026103527725
 31
0.0
  0
LINE
  5
19E6
330
19
100
AcDbEntity
  8
MSR1-0
100
AcDbLine
 10
123.954334
 20
69.39026103527725
 30
0.0
 11
124.954334
 21
69.39026103527725
 31
0.0
  0
LINE
  5
19E7
330
19
100
AcDbEntity
  8
MSR1-4
100
AcDbLine
 10
123.954334
 20
69.89026103527725
 30
0.0
 11
124.954334
 21
69.89026103527725
 31
0.0
  0
LINE
  5
19E8
330
19
100
AcDbEntity
  8
MSR1-7
100
AcDbLine
 10
142.254334
 20
73.49533803527724
 30
0.0
 11
142.254334
 21
64.62518203527725
 31
0.0
  0
LINE
  5
19E9
330
19
100
AcDbEntity
  8
MSR1-7
100
AcDbLine
 10
137.918963
 20
46.89026103527726
 30
0.0
 11
146.550994
 21
46.89026103527726
 31
0.0
  0
LINE
  5
19EA
330
19
100
AcDbEntity
  8
MSR1-7
100
AcDbLine
 10
137.918963
 20
68.89026103527725
 30
0.0
 11
146.550994
 21
68.89026103527725
 31
0.0
  0
ARC
  5
19EB
330
19
100
AcDbEntity
  8
MSR1-4
100
AcDbCircle
 10
142.254334
 20
68.89026103527725
 30
0.0
 40
2.5
100
AcDbArc
 50
89.999999
 51
0.0
  0
CIRCLE
  5
19EC
330
19
100
AcDbEntity
  8
MSR1-0
100
AcDbCircle
 10
142.254334
 20
68.89026103527725
 30
0.0
 40
2.1
  0
CIRCLE
  5
19ED
330
19
100
AcDbEntity
  8
MSR1-0
100
AcDbCircle
 10
142.254334
 20
68.89026103527725
 30
0.0
 40
3.5
  0
LINE
  5
19EE
330
19
100
AcDbEntity
  8
MSR1-7
100
AcDbLine
 10
130.299951
 20
113.328459
 30
0.0
 11
136.254334
 21
113.328459
 31
0.0
  0
CIRCLE
  5
19EF
330
19
100
AcDbEntity
  8
MSR1-0
100
AcDbCircle
 10
133.754334
 20
113.328459
 30
0.0
 40
2.1
  0
ARC
  5
19F0
330
19
100
AcDbEntity
  8
MSR1-4
100
AcDbCircle
 10
133.754334
 20
113.328459
 30
0.0
 40
2.5
100
AcDbArc
 50
89.999999
 51
0.0
  0
LINE
  5
19F1
330
19
100
AcDbEntity
  8
MSR1-7
100
AcDbLine
 10
133.754334
 20
117.155805
 30
0.0
 11
133.754334
 21
109.93268
 31
0.0
  0
LINE
  5
19F2
330
19
100
AcDbEntity
  8
MSR1-7
100
AcDbLine
 10
143.254334
 20
104.917907
 30
0.0
 11
143.254334
 21
90.650942
 31
0.0
  0
LINE
  5
19F3
330
19
100
AcDbEntity
  8
MSR1-3
100
AcDbLine
 10
144.904334
 20
103.344014
 30
0.0
 11
144.904334
 21
93.344014
 31
0.0
  0
LINE
  5
19F4
330
19
100
AcDbEntity
  8
MSR1-3
100
AcDbLine
 10
145.254334
 20
103.344014
 30
0.0
 11
145.254334
 21
93.344014
 31
0.0
  0
LINE
  5
19F5
330
19
100
AcDbEntity
  8
MSR1-3
100
AcDbLine
 10
141.604334
 20
103.344014
 30
0.0
 11
141.604334
 21
93.344014
 31
0.0
  0
LINE
  5
19F6
330
19
100
AcDbEntity
  8
MSR1-3
100
AcDbLine
 10
141.254334
 20
103.344014
 30
0.0
 11
141.254334
 21
93.344014
 31
0.0
  0
LINE
  5
19F7
330
19
100
AcDbEntity
  8
MSR1-7
100
AcDbLine
 10
137.254334
 20
106.100056
 30
0.0
 11
137.254334
 21
90.650942
 31
0.0
  0
LINE
  5
19F8
330
19
100
AcDbEntity
  8
MSR1-7
100
AcDbLine
 10
142.299951
 20
110.128459
 30
0.0
 11
149.284951
 21
110.128459
 31
0.0
  0
POLYLINE
  5
19F9
330
19
100
AcDbEntity
  8
MSR1-6
100
AcDb2dPolyline
 66
     1
 10
0.0
 20
0.0
 30
0.0
  0
VERTEX
  5
19FA
330
19F9
100
AcDbEntity
  8
MSR1-6
100
AcDbVertex
100
AcDb2dVertex
 10
137.59774
 20
112.011196
 30
0.0
  0
VERTEX
  5
19FB
330
19F9
100
AcDbEntity
  8
MSR1-6
100
AcDbVertex
100
AcDb2dVertex
 10
137.59774
 20
114.392148
 30
0.0
  0
VERTEX
  5
19FC
330
19F9
100
AcDbEntity
  8
MSR1-6
100
AcDbVertex
100
AcDb2dVertex
 10
138.37155
 20
114.392148
 30
0.0
  0
VERTEX
  5
19FD
330
19F9
100
AcDbEntity
  8
MSR1-6
100
AcDbVertex
100
AcDb2dVertex
 10
138.609645
 20
114.332624
 30
0.0
  0
VERTEX
  5
19FE
330
19F9
100
AcDbEntity
  8
MSR1-6
100
AcDbVertex
100
AcDb2dVertex
 10
138.728693
 20
114.213577
 30
0.0
  0
VERTEX
  5
19FF
330
19F9
100
AcDbEntity
  8
MSR1-6
100
AcDbVertex
100
AcDb2dVertex
 10
138.84774
 20
113.975482
 30
0.0
  0
VERTEX
  5
1A00
330
19F9
100
AcDbEntity
  8
MSR1-6
100
AcDbVertex
100
AcDb2dVertex
 10
138.84774
 20
113.618339
 30
0.0
  0
VERTEX
  5
1A01
330
19F9
100
AcDbEntity
  8
MSR1-6
100
AcDbVertex
100
AcDb2dVertex
 10
138.728693
 20
113.380243
 30
0.0
  0
VERTEX
  5
1A02
330
19F9
100
AcDbEntity
  8
MSR1-6
100
AcDbVertex
100
AcDb2dVertex
 10
138.609645
 20
113.261196
 30
0.0
  0
VERTEX
  5
1A03
330
19F9
100
AcDbEntity
  8
MSR1-6
100
AcDbVertex
100
AcDb2dVertex
 10
138.37155
 20
113.201672
 30
0.0
  0
SEQEND
  5
1A04
330
19F9
100
AcDbEntity
  8
MSR1-6
  0
POLYLINE
  5
1A05
330
19
100
AcDbEntity
  8
MSR1-6
100
AcDb2dPolyline
 66
     1
 10
0.0
 20
0.0
 30
0.0
  0
VERTEX
  5
1A06
330
1A05
100
AcDbEntity
  8
MSR1-6
100
AcDbVertex
100
AcDb2dVertex
 10
137.59774
 20
113.201672
 30
0.0
  0
VERTEX
  5
1A07
330
1A05
100
AcDbEntity
  8
MSR1-6
100
AcDbVertex
100
AcDb2dVertex
 10
138.37155
 20
113.201672
 30
0.0
  0
VERTEX
  5
1A08
330
1A05
100
AcDbEntity
  8
MSR1-6
100
AcDbVertex
100
AcDb2dVertex
 10
138.609645
 20
113.142148
 30
0.0
  0
VERTEX
  5
1A09
330
1A05
100
AcDbEntity
  8
MSR1-6
100
AcDbVertex
100
AcDb2dVertex
 10
138.728693
 20
113.023101
 30
0.0
  0
VERTEX
  5
1A0A
330
1A05
100
AcDbEntity
  8
MSR1-6
100
AcDbVertex
100
AcDb2dVertex
 10
138.84774
 20
112.785005
 30
0.0
  0
VERTEX
  5
1A0B
330
1A05
100
AcDbEntity
  8
MSR1-6
100
AcDbVertex
100
AcDb2dVertex
 10
138.84774
 20
112.427863
 30
0.0
  0
VERTEX
  5
1A0C
330
1A05
100
AcDbEntity
  8
MSR1-6
100
AcDbVertex
100
AcDb2dVertex
 10
138.728693
 20
112.189767
 30
0.0
  0
VERTEX
  5
1A0D
330
1A05
100
AcDbEntity
  8
MSR1-6
100
AcDbVertex
100
AcDb2dVertex
 10
138.609645
 20
112.07072
 30
0.0
  0
VERTEX
  5
1A0E
330
1A05
100
AcDbEntity
  8
MSR1-6
100
AcDbVertex
100
AcDb2dVertex
 10
138.37155
 20
112.011196
 30
0.0
  0
VERTEX
  5
1A0F
330
1A05
100
AcDbEntity
  8
MSR1-6
100
AcDbVertex
100
AcDb2dVertex
 10
137.59774
 20
112.011196
 30
0.0
  0
SEQEND
  5
1A10
330
1A05
100
AcDbEntity
  8
MSR1-6
  0
CIRCLE
  5
1A11
330
19
100
AcDbEntity
  8
MSR1-0
100
AcDbCircle
 10
145.754334
 20
110.128459
 30
0.0
 40
2.1
  0
ARC
  5
1A12
330
19
100
AcDbEntity
  8
MSR1-4
100
AcDbCircle
 10
145.754334
 20
110.128459
 30
0.0
 40
2.5
100
AcDbArc
 50
89.999999
 51
0.0
  0
LINE
  5
1A13
330
19
100
AcDbEntity
  8
MSR1-7
100
AcDbLine
 10
145.954334
 20
113.955805
 30
0.0
 11
145.954334
 21
106.73268
 31
0.0
  0
POLYLINE
  5
1A14
330
19
100
AcDbEntity
  8
MSR1-6
100
AcDb2dPolyline
 66
     1
 10
0.0
 20
0.0
 30
0.0
  0
VERTEX
  5
1A15
330
1A14
100
AcDbEntity
  8
MSR1-6
100
AcDbVertex
100
AcDb2dVertex
 10
147.834496
 20
112.208621
 30
0.0
  0
VERTEX
  5
1A16
330
1A14
100
AcDbEntity
  8
MSR1-6
100
AcDbVertex
100
AcDb2dVertex
 10
148.489258
 20
114.589573
 30
0.0
  0
VERTEX
  5
1A17
330
1A14
100
AcDbEntity
  8
MSR1-6
100
AcDbVertex
100
AcDb2dVertex
 10
148.608306
 20
114.589573
 30
0.0
  0
VERTEX
  5
1A18
330
1A14
100
AcDbEntity
  8
MSR1-6
100
AcDbVertex
100
AcDb2dVertex
 10
149.263068
 20
112.208621
 30
0.0
  0
SEQEND
  5
1A19
330
1A14
100
AcDbEntity
  8
MSR1-6
  0
LINE
  5
1A1A
330
19
100
AcDbEntity
  8
MSR1-6
100
AcDbLine
 10
148.072591
 20
113.041954
 30
0.0
 11
149.024972
 21
113.041954
 31
0.0
  0
TEXT
  5
1A1B
330
19
100
AcDbEntity
  8
MSR1-6
100
AcDbText
 10
170.0782426285736
 20
44.72316090187919
 30
0.0
 40
2.0
  1
MSR1
100
AcDbText
  0
CIRCLE
  5
1A1C
330
19
100
AcDbEntity
  8
MSR1-0
100
AcDbCircle
 10
164.254334
 20
46.89026103527726
 30
0.0
 40
3.5
  0
ARC
  5
1A1D
330
19
100
AcDbEntity
  8
MSR1-4
100
AcDbCircle
 10
164.254334
 20
46.89026103527726
 30
0.0
 40
2.5
100
AcDbArc
 50
89.999999
 51
0.0
  0
CIRCLE
  5
1A1E
330
19
100
AcDbEntity
  8
MSR1-0
100
AcDbCircle
 10
164.254334
 20
46.89026103527726
 30
0.0
 40
2.1
  0
LINE
  5
1A1F
330
19
100
AcDbEntity
  8
MSR1-7
100
AcDbLine
 10
164.254334
 20
51.49533803527724
 30
0.0
 11
164.254334
 21
42.62518203527725
 31
0.0
  0
LINE
  5
1A20
330
19
100
AcDbEntity
  8
MSR1-7
100
AcDbLine
 10
153.254334
 20
75.81521203527724
 30
0.0
 11
153.454334
 21
39.14295503527725
 31
0.0
  0
POLYLINE
  5
1A21
330
19
100
AcDbEntity
  8
MSR1-0
100
AcDb2dPolyline
 66
     1
 10
0.0
 20
0.0
 30
0.0
  0
VERTEX
  5
1A22
330
1A21
100
AcDbEntity
  8
MSR1-0
100
AcDbVertex
100
AcDb2dVertex
 10
168.254334
 20
72.89026103527724
 30
0.0
  0
VERTEX
  5
1A23
330
1A21
100
AcDbEntity
  8
MSR1-0
100
AcDbVertex
100
AcDb2dVertex
 10
183.454334
 20
72.89026103527724
 30
0.0
  0
VERTEX
  5
1A24
330
1A21
100
AcDbEntity
  8
MSR1-0
100
AcDbVertex
100
AcDb2dVertex
 10
183.454334
 20
42.89026103527726
 30
0.0
  0
VERTEX
  5
1A25
330
1A21
100
AcDbEntity
  8
MSR1-0
100
AcDbVertex
100
AcDb2dVertex
 10
168.254334
 20
42.89026103527726
 30
0.0
  0
SEQEND
  5
1A26
330
1A21
100
AcDbEntity
  8
MSR1-0
  0
LINE
  5
1A27
330
19
100
AcDbEntity
  8
MSR1-7
100
AcDbLine
 10
159.918963
 20
68.89026103527725
 30
0.0
 11
168.550994
 21
68.89026103527725
 31
0.0
  0
ARC
  5
1A28
330
19
100
AcDbEntity
  8
MSR1-4
100
AcDbCircle
 10
164.254334
 20
68.89026103527725
 30
0.0
 40
2.5
100
AcDbArc
 50
89.999999
 51
0.0
  0
CIRCLE
  5
1A29
330
19
100
AcDbEntity
  8
MSR1-0
100
AcDbCircle
 10
164.254334
 20
68.89026103527725
 30
0.0
 40
2.1
  0
CIRCLE
  5
1A2A
330
19
100
AcDbEntity
  8
MSR1-0
100
AcDbCircle
 10
164.254334
 20
68.89026103527725
 30
0.0
 40
3.5
  0
LINE
  5
1A2B
330
19
100
AcDbEntity
  8
MSR1-7
100
AcDbLine
 10
159.918963
 20
46.89026103527726
 30
0.0
 11
168.550994
 21
46.89026103527726
 31
0.0
  0
LINE
  5
1A2C
330
19
100
AcDbEntity
  8
MSR1-7
100
AcDbLine
 10
164.254334
 20
73.49533803527724
 30
0.0
 11
164.254334
 21
64.62518203527725
 31
0.0
  0
LINE
  5
1A2D
330
19
100
AcDbEntity
  8
MSR1-3
100
AcDbLine
 10
151.254334
 20
103.344014
 30
0.0
 11
151.254334
 21
93.344014
 31
0.0
  0
LINE
  5
1A2E
330
19
100
AcDbEntity
  8
MSR1-3
100
AcDbLine
 10
155.254334
 20
103.344014
 30
0.0
 11
155.254334
 21
93.344014
 31
0.0
  0
LINE
  5
1A2F
330
19
100
AcDbEntity
  8
MSR1-3
100
AcDbLine
 10
161.604334
 20
103.344014
 30
0.0
 11
161.604334
 21
93.344014
 31
0.0
  0
LINE
  5
1A30
330
19
100
AcDbEntity
  8
MSR1-3
100
AcDbLine
 10
161.254334
 20
103.344014
 30
0.0
 11
161.254334
 21
93.344014
 31
0.0
  0
LINE
  5
1A31
330
19
100
AcDbEntity
  8
MSR1-7
100
AcDbLine
 10
163.254334
 20
104.917907
 30
0.0
 11
163.254334
 21
90.650942
 31
0.0
  0
LINE
  5
1A32
330
19
100
AcDbEntity
  8
MSR1-7
100
AcDbLine
 10
169.254334
 20
106.100056
 30
0.0
 11
169.254334
 21
90.650942
 31
0.0
  0
LINE
  5
1A33
330
19
100
AcDbEntity
  8
MSR1-3
100
AcDbLine
 10
165.254334
 20
103.344014
 30
0.0
 11
165.254334
 21
93.344014
 31
0.0
  0
LINE
  5
1A34
330
19
100
AcDbEntity
  8
MSR1-3
100
AcDbLine
 10
164.904334
 20
103.344014
 30
0.0
 11
164.904334
 21
93.344014
 31
0.0
  0
LINE
  5
1A35
330
19
100
AcDbEntity
  8
MSR1-7
100
AcDbLine
 10
149.557691
 20
186.7011076783853
 30
0.0
 11
156.928227
 21
186.7011076783853
 31
0.0
  0
LINE
  5
1A36
330
19
100
AcDbEntity
  8
MSR1-7
100
AcDbLine
 10
149.557691
 20
166.7011076783853
 30
0.0
 11
156.814834
 21
166.7011076783853
 31
0.0
  0
POLYLINE
  5
1A37
330
19
100
AcDbEntity
  8
MSR1-0
100
AcDb2dPolyline
 66
     1
 10
0.0
 20
0.0
 30
0.0
 70
     1
  0
VERTEX
  5
1A38
330
1A37
100
AcDbEntity
  8
MSR1-0
100
AcDbVertex
100
AcDb2dVertex
 10
138.254334
 20
141.344014
 30
0.0
  0
VERTEX
  5
1A39
330
1A37
100
AcDbEntity
  8
MSR1-0
100
AcDbVertex
100
AcDb2dVertex
 10
168.254334
 20
141.344014
 30
0.0
  0
VERTEX
  5
1A3A
330
1A37
100
AcDbEntity
  8
MSR1-0
100
AcDbVertex
100
AcDb2dVertex
 10
168.254334
 20
146.344014
 30
0.0
  0
VERTEX
  5
1A3B
330
1A37
100
AcDbEntity
  8
MSR1-0
100
AcDbVertex
100
AcDb2dVertex
 10
138.254334
 20
146.344014
 30
0.0
  0
VERTEX
  5
1A3C
330
1A37
100
AcDbEntity
  8
MSR1-0
100
AcDbVertex
100
AcDb2dVertex
 10
138.254334
 20
141.344014
 30
0.0
  0
SEQEND
  5
1A3D
330
1A37
100
AcDbEntity
  8
MSR1-0
  0
CIRCLE
  5
1A3E
330
19
100
AcDbEntity
  8
MSR1-0
100
AcDbCircle
 10
153.254334
 20
176.7011076783853
 30
0.0
 40
4.5
  0
POLYLINE
  5
1A3F
330
19
100
AcDbEntity
  8
MSR1-0
100
AcDb2dPolyline
 66
     1
 10
0.0
 20
0.0
 30
0.0
 70
     1
  0
VERTEX
  5
1A40
330
1A3F
100
AcDbEntity
  8
MSR1-0
100
AcDbVertex
100
AcDb2dVertex
 10
138.254334
 20
132.344014
 30
0.0
  0
VERTEX
  5
1A41
330
1A3F
100
AcDbEntity
  8
MSR1-0
100
AcDbVertex
100
AcDb2dVertex
 10
168.254334
 20
132.344014
 30
0.0
  0
VERTEX
  5
1A42
330
1A3F
100
AcDbEntity
  8
MSR1-0
100
AcDbVertex
100
AcDb2dVertex
 10
168.254334
 20
129.844014
 30
0.0
  0
VERTEX
  5
1A43
330
1A3F
100
AcDbEntity
  8
MSR1-0
100
AcDbVertex
100
AcDb2dVertex
 10
138.254334
 20
129.844014
 30
0.0
  0
VERTEX
  5
1A44
330
1A3F
100
AcDbEntity
  8
MSR1-0
100
AcDbVertex
100
AcDb2dVertex
 10
138.254334
 20
132.344014
 30
0.0
  0
SEQEND
  5
1A45
330
1A3F
100
AcDbEntity
  8
MSR1-0
  0
LINE
  5
1A46
330
19
100
AcDbEntity
  8
MSR1-7
100
AcDbLine
 10
101.212988
 20
135.844014
 30
0.0
 11
154.821641
 21
135.844014
 31
0.0
  0
LINE
  5
1A47
330
19
100
AcDbEntity
  8
MSR1-0
100
AcDbLine
 10
131.954334
 20
138.344014
 30
0.0
 11
151.454334
 21
138.344014
 31
0.0
  0
LINE
  5
1A48
330
19
100
AcDbEntity
  8
MSR1-0
100
AcDbLine
 10
131.979397
 20
133.344014
 30
0.0
 11
151.454334
 21
133.344014
 31
0.0
  0
POLYLINE
  5
1A49
330
19
100
AcDbEntity
  8
MSR1-0
100
AcDb2dPolyline
 66
     1
 10
0.0
 20
0.0
 30
0.0
 70
     1
  0
VERTEX
  5
1A4A
330
1A49
100
AcDbEntity
  8
MSR1-0
100
AcDbVertex
100
AcDb2dVertex
 10
117.454334
 20
191.7011076783853
 30
0.0
  0
VERTEX
  5
1A4B
330
1A49
100
AcDbEntity
  8
MSR1-0
100
AcDbVertex
100
AcDb2dVertex
 10
183.454334
 20
191.7011076783853
 30
0.0
  0
VERTEX
  5
1A4C
330
1A49
100
AcDbEntity
  8
MSR1-0
100
AcDbVertex
100
AcDb2dVertex
 10
183.454334
 20
161.7011076783853
 30
0.0
  0
VERTEX
  5
1A4D
330
1A49
100
AcDbEntity
  8
MSR1-0
100
AcDbVertex
100
AcDb2dVertex
 10
117.454334
 20
161.7011076783853
 30
0.0
  0
VERTEX
  5
1A4E
330
1A49
100
AcDbEntity
  8
MSR1-0
100
AcDbVertex
100
AcDb2dVertex
 10
117.454334
 20
191.7011076783853
 30
0.0
  0
SEQEND
  5
1A4F
330
1A49
100
AcDbEntity
  8
MSR1-0
  0
LINE
  5
1A50
330
19
100
AcDbEntity
  8
MSR1-7
100
AcDbLine
 10
109.956798
 20
176.7011076783853
 30
0.0
 11
184.938416
 21
176.7011076783853
 31
0.0
  0
TEXT
  5
1A51
330
19
100
AcDbEntity
  8
MSR1-6
100
AcDbText
 10
119.2782426285736
 20
163.5340075449873
 30
0.0
 40
2.0
  1
MSR1
100
AcDbText
  0
LINE
  5
1A52
330
19
100
AcDbEntity
  8
MSR1-3
100
AcDbLine
 10
118.954334
 20
138.844014
 30
0.0
 11
123.954334
 21
138.844014
 31
0.0
  0
LINE
  5
1A53
330
19
100
AcDbEntity
  8
MSR1-3
100
AcDbLine
 10
118.954334
 20
138.344014
 30
0.0
 11
123.954334
 21
138.344014
 31
0.0
  0
LINE
  5
1A54
330
19
100
AcDbEntity
  8
MSR1-3
100
AcDbLine
 10
118.954334
 20
133.344014
 30
0.0
 11
123.954334
 21
133.344014
 31
0.0
  0
LINE
  5
1A55
330
19
100
AcDbEntity
  8
MSR1-3
100
AcDbLine
 10
118.954334
 20
132.844014
 30
0.0
 11
123.954334
 21
132.844014
 31
0.0
  0
POLYLINE
  5
1A56
330
19
100
AcDbEntity
  8
MSR1-0
100
AcDb2dPolyline
 66
     1
 10
0.0
 20
0.0
 30
0.0
 70
     1
  0
VERTEX
  5
1A57
330
1A56
100
AcDbEntity
  8
MSR1-0
100
AcDbVertex
100
AcDb2dVertex
 10
118.954334
 20
139.844014
 30
0.0
  0
VERTEX
  5
1A58
330
1A56
100
AcDbEntity
  8
MSR1-0
100
AcDbVertex
100
AcDb2dVertex
 10
123.954334
 20
139.844014
 30
0.0
  0
VERTEX
  5
1A59
330
1A56
100
AcDbEntity
  8
MSR1-0
100
AcDbVertex
100
AcDb2dVertex
 10
123.954334
 20
129.844014
 30
0.0
  0
VERTEX
  5
1A5A
330
1A56
100
AcDbEntity
  8
MSR1-0
100
AcDbVertex
100
AcDb2dVertex
 10
118.954334
 20
129.844014
 30
0.0
  0
VERTEX
  5
1A5B
330
1A56
100
AcDbEntity
  8
MSR1-0
100
AcDbVertex
100
AcDb2dVertex
 10
118.954334
 20
139.844014
 30
0.0
  0
SEQEND
  5
1A5C
330
1A56
100
AcDbEntity
  8
MSR1-0
  0
LINE
  5
1A5D
330
19
100
AcDbEntity
  8
MSR1-4
100
AcDbLine
 10
110.954334
 20
135.844014
 30
0.0
 11
103.454334
 21
131.844014
 31
0.0
  0
LINE
  5
1A5E
330
19
100
AcDbEntity
  8
MSR1-4
100
AcDbLine
 10
103.454334
 20
135.844014
 30
0.0
 11
110.954334
 21
131.844014
 31
0.0
  0
POLYLINE
  5
1A5F
330
19
100
AcDbEntity
  8
MSR1-0
100
AcDb2dPolyline
 66
     1
 10
0.0
 20
0.0
 30
0.0
 70
     1
  0
VERTEX
  5
1A60
330
1A5F
100
AcDbEntity
  8
MSR1-0
100
AcDbVertex
100
AcDb2dVertex
 10
110.954334
 20
131.844014
 30
0.0
  0
VERTEX
  5
1A61
330
1A5F
100
AcDbEntity
  8
MSR1-0
100
AcDbVertex
100
AcDb2dVertex
 10
103.454334
 20
131.844014
 30
0.0
  0
VERTEX
  5
1A62
330
1A5F
100
AcDbEntity
  8
MSR1-0
100
AcDbVertex
100
AcDb2dVertex
 10
103.454334
 20
139.844014
 30
0.0
  0
VERTEX
  5
1A63
330
1A5F
100
AcDbEntity
  8
MSR1-0
100
AcDbVertex
100
AcDb2dVertex
 10
110.954334
 20
139.844014
 30
0.0
  0
VERTEX
  5
1A64
330
1A5F
100
AcDbEntity
  8
MSR1-0
100
AcDbVertex
100
AcDb2dVertex
 10
110.954334
 20
140.344014
 30
0.0
  0
VERTEX
  5
1A65
330
1A5F
100
AcDbEntity
  8
MSR1-0
100
AcDbVertex
100
AcDb2dVertex
 10
117.454334
 20
140.344014
 30
0.0
  0
VERTEX
  5
1A66
330
1A5F
100
AcDbEntity
  8
MSR1-0
100
AcDbVertex
100
AcDb2dVertex
 10
117.454334
 20
131.344014
 30
0.0
  0
VERTEX
  5
1A67
330
1A5F
100
AcDbEntity
  8
MSR1-0
100
AcDbVertex
100
AcDb2dVertex
 10
110.954334
 20
131.344014
 30
0.0
  0
VERTEX
  5
1A68
330
1A5F
100
AcDbEntity
  8
MSR1-0
100
AcDbVertex
100
AcDb2dVertex
 10
110.954334
 20
131.844014
 30
0.0
  0
SEQEND
  5
1A69
330
1A5F
100
AcDbEntity
  8
MSR1-0
  0
LINE
  5
1A6A
330
19
100
AcDbEntity
  8
MSR1-4
100
AcDbLine
 10
103.454334
 20
135.844014
 30
0.0
 11
110.954334
 21
139.844014
 31
0.0
  0
LINE
  5
1A6B
330
19
100
AcDbEntity
  8
MSR1-4
100
AcDbLine
 10
103.454334
 20
139.844014
 30
0.0
 11
110.954334
 21
135.844014
 31
0.0
  0
LINE
  5
1A6C
330
19
100
AcDbEntity
  8
MSR1-0
100
AcDbLine
 10
110.954334
 20
131.844014
 30
0.0
 11
110.954334
 21
139.844014
 31
0.0
  0
LINE
  5
1A6D
330
19
100
AcDbEntity
  8
MSR1-4
100
AcDbLine
 10
117.454334
 20
138.844014
 30
0.0
 11
118.954334
 21
138.844014
 31
0.0
  0
LINE
  5
1A6E
330
19
100
AcDbEntity
  8
MSR1-0
100
AcDbLine
 10
117.454334
 20
138.344014
 30
0.0
 11
118.954334
 21
138.344014
 31
0.0
  0
LINE
  5
1A6F
330
19
100
AcDbEntity
  8
MSR1-0
100
AcDbLine
 10
117.454334
 20
133.344014
 30
0.0
 11
118.954334
 21
133.344014
 31
0.0
  0
LINE
  5
1A70
330
19
100
AcDbEntity
  8
MSR1-4
100
AcDbLine
 10
117.454334
 20
132.844014
 30
0.0
 11
118.954334
 21
132.844014
 31
0.0
  0
LINE
  5
1A71
330
19
100
AcDbEntity
  8
MSR1-4
100
AcDbLine
 10
103.454334
 20
185.7011076783853
 30
0.0
 11
110.954334
 21
181.7011076783853
 31
0.0
  0
LINE
  5
1A72
330
19
100
AcDbEntity
  8
MSR1-4
100
AcDbLine
 10
110.954334
 20
185.7011076783853
 30
0.0
 11
103.454334
 21
181.7011076783853
 31
0.0
  0
LINE
  5
1A73
330
19
100
AcDbEntity
  8
MSR1-0
100
AcDbLine
 10
103.454334
 20
185.7011076783853
 30
0.0
 11
110.954334
 21
185.7011076783853
 31
0.0
  0
POLYLINE
  5
1A74
330
19
100
AcDbEntity
  8
MSR1-0
100
AcDb2dPolyline
 66
     1
 10
0.0
 20
0.0
 30
0.0
 70
     1
  0
VERTEX
  5
1A75
330
1A74
100
AcDbEntity
  8
MSR1-0
100
AcDbVertex
100
AcDb2dVertex
 10
110.954334
 20
181.7011076783853
 30
0.0
  0
VERTEX
  5
1A76
330
1A74
100
AcDbEntity
  8
MSR1-0
100
AcDbVertex
100
AcDb2dVertex
 10
103.454334
 20
181.7011076783853
 30
0.0
  0
VERTEX
  5
1A77
330
1A74
100
AcDbEntity
  8
MSR1-0
100
AcDbVertex
100
AcDb2dVertex
 10
103.454334
 20
189.7011076783853
 30
0.0
  0
VERTEX
  5
1A78
330
1A74
100
AcDbEntity
  8
MSR1-0
100
AcDbVertex
100
AcDb2dVertex
 10
110.954334
 20
189.7011076783853
 30
0.0
  0
VERTEX
  5
1A79
330
1A74
100
AcDbEntity
  8
MSR1-0
100
AcDbVertex
100
AcDb2dVertex
 10
110.954334
 20
190.2011076783853
 30
0.0
  0
VERTEX
  5
1A7A
330
1A74
100
AcDbEntity
  8
MSR1-0
100
AcDbVertex
100
AcDb2dVertex
 10
113.454334
 20
190.2011076783853
 30
0.0
  0
VERTEX
  5
1A7B
330
1A74
100
AcDbEntity
  8
MSR1-0
100
AcDbVertex
100
AcDb2dVertex
 10
113.454334
 20
181.2011076783853
 30
0.0
  0
VERTEX
  5
1A7C
330
1A74
100
AcDbEntity
  8
MSR1-0
100
AcDbVertex
100
AcDb2dVertex
 10
110.954334
 20
181.2011076783853
 30
0.0
  0
VERTEX
  5
1A7D
330
1A74
100
AcDbEntity
  8
MSR1-0
100
AcDbVertex
100
AcDb2dVertex
 10
110.954334
 20
181.7011076783853
 30
0.0
  0
SEQEND
  5
1A7E
330
1A74
100
AcDbEntity
  8
MSR1-0
  0
LINE
  5
1A7F
330
19
100
AcDbEntity
  8
MSR1-4
100
AcDbLine
 10
103.454334
 20
189.7011076783853
 30
0.0
 11
110.954334
 21
185.7011076783853
 31
0.0
  0
LINE
  5
1A80
330
19
100
AcDbEntity
  8
MSR1-4
100
AcDbLine
 10
103.454334
 20
185.7011076783853
 30
0.0
 11
110.954334
 21
189.7011076783853
 31
0.0
  0
POLYLINE
  5
1A81
330
19
100
AcDbEntity
  8
MSR1-0
100
AcDb2dPolyline
 66
     1
 10
0.0
 20
0.0
 30
0.0
 70
     1
  0
VERTEX
  5
1A82
330
1A81
100
AcDbEntity
  8
MSR1-0
100
AcDbVertex
100
AcDb2dVertex
 10
110.954334
 20
163.7011076783853
 30
0.0
  0
VERTEX
  5
1A83
330
1A81
100
AcDbEntity
  8
MSR1-0
100
AcDbVertex
100
AcDb2dVertex
 10
103.454334
 20
163.7011076783853
 30
0.0
  0
VERTEX
  5
1A84
330
1A81
100
AcDbEntity
  8
MSR1-0
100
AcDbVertex
100
AcDb2dVertex
 10
103.454334
 20
171.7011076783853
 30
0.0
  0
VERTEX
  5
1A85
330
1A81
100
AcDbEntity
  8
MSR1-0
100
AcDbVertex
100
AcDb2dVertex
 10
110.954334
 20
171.7011076783853
 30
0.0
  0
VERTEX
  5
1A86
330
1A81
100
AcDbEntity
  8
MSR1-0
100
AcDbVertex
100
AcDb2dVertex
 10
110.954334
 20
172.2011076783853
 30
0.0
  0
VERTEX
  5
1A87
330
1A81
100
AcDbEntity
  8
MSR1-0
100
AcDbVertex
100
AcDb2dVertex
 10
113.454334
 20
172.2011076783853
 30
0.0
  0
VERTEX
  5
1A88
330
1A81
100
AcDbEntity
  8
MSR1-0
100
AcDbVertex
100
AcDb2dVertex
 10
113.454334
 20
163.2011076783853
 30
0.0
  0
VERTEX
  5
1A89
330
1A81
100
AcDbEntity
  8
MSR1-0
100
AcDbVertex
100
AcDb2dVertex
 10
110.954334
 20
163.2011076783853
 30
0.0
  0
VERTEX
  5
1A8A
330
1A81
100
AcDbEntity
  8
MSR1-0
100
AcDbVertex
100
AcDb2dVertex
 10
110.954334
 20
163.7011076783853
 30
0.0
  0
SEQEND
  5
1A8B
330
1A81
100
AcDbEntity
  8
MSR1-0
  0
LINE
  5
1A8C
330
19
100
AcDbEntity
  8
MSR1-4
100
AcDbLine
 10
110.954334
 20
167.7011076783853
 30
0.0
 11
103.454334
 21
163.7011076783853
 31
0.0
  0
LINE
  5
1A8D
330
19
100
AcDbEntity
  8
MSR1-4
100
AcDbLine
 10
103.454334
 20
167.7011076783853
 30
0.0
 11
110.954334
 21
163.7011076783853
 31
0.0
  0
LINE
  5
1A8E
330
19
100
AcDbEntity
  8
MSR1-4
100
AcDbLine
 10
103.454334
 20
167.7011076783853
 30
0.0
 11
110.954334
 21
171.7011076783853
 31
0.0
  0
LINE
  5
1A8F
330
19
100
AcDbEntity
  8
MSR1-4
100
AcDbLine
 10
103.454334
 20
171.7011076783853
 30
0.0
 11
110.954334
 21
167.7011076783853
 31
0.0
  0
LINE
  5
1A90
330
19
100
AcDbEntity
  8
MSR1-0
100
AcDbLine
 10
103.454334
 20
167.7011076783853
 30
0.0
 11
110.954334
 21
167.7011076783853
 31
0.0
  0
LINE
  5
1A91
330
19
100
AcDbEntity
  8
MSR1-7
100
AcDbLine
 10
103.454334
 20
167.7011076783853
 30
0.0
 11
100.091619
 21
167.7011076783853
 31
0.0
  0
LINE
  5
1A92
330
19
100
AcDbEntity
  8
MSR1-7
100
AcDbLine
 10
103.454334
 20
185.7011076783853
 30
0.0
 11
100.091619
 21
185.7011076783853
 31
0.0
  0
LINE
  5
1A93
330
19
100
AcDbEntity
  8
MSR1-4
100
AcDbLine
 10
113.454334
 20
184.7011076783853
 30
0.0
 11
117.454334
 21
178.2011076783853
 31
0.0
  0
LINE
  5
1A94
330
19
100
AcDbEntity
  8
MSR1-4
100
AcDbLine
 10
117.454334
 20
184.7011076783853
 30
0.0
 11
113.454334
 21
178.2011076783853
 31
0.0
  0
POLYLINE
  5
1A95
330
19
100
AcDbEntity
  8
MSR1-0
100
AcDb2dPolyline
 66
     1
 10
0.0
 20
0.0
 30
0.0
  0
VERTEX
  5
1A96
330
1A95
100
AcDbEntity
  8
MSR1-0
100
AcDbVertex
100
AcDb2dVertex
 10
117.454334
 20
191.2011076783853
 30
0.0
  0
VERTEX
  5
1A97
330
1A95
100
AcDbEntity
  8
MSR1-0
100
AcDbVertex
100
AcDb2dVertex
 10
113.454334
 20
191.2011076783853
 30
0.0
  0
VERTEX
  5
1A98
330
1A95
100
AcDbEntity
  8
MSR1-0
100
AcDbVertex
100
AcDb2dVertex
 10
113.454334
 20
178.2011076783853
 30
0.0
  0
VERTEX
  5
1A99
330
1A95
100
AcDbEntity
  8
MSR1-0
100
AcDbVertex
100
AcDb2dVertex
 10
117.454334
 20
178.2011076783853
 30
0.0
  0
SEQEND
  5
1A9A
330
1A95
100
AcDbEntity
  8
MSR1-0
  0
LINE
  5
1A9B
330
19
100
AcDbEntity
  8
MSR1-4
100
AcDbLine
 10
117.454334
 20
168.7011076783853
 30
0.0
 11
113.454334
 21
162.2011076783853
 31
0.0
  0
LINE
  5
1A9C
330
19
100
AcDbEntity
  8
MSR1-4
100
AcDbLine
 10
113.454334
 20
168.7011076783853
 30
0.0
 11
117.454334
 21
162.2011076783853
 31
0.0
  0
LINE
  5
1A9D
330
19
100
AcDbEntity
  8
MSR1-0
100
AcDbLine
 10
113.454334
 20
168.7011076783853
 30
0.0
 11
117.454334
 21
168.7011076783853
 31
0.0
  0
POLYLINE
  5
1A9E
330
19
100
AcDbEntity
  8
MSR1-0
100
AcDb2dPolyline
 66
     1
 10
0.0
 20
0.0
 30
0.0
  0
VERTEX
  5
1A9F
330
1A9E
100
AcDbEntity
  8
MSR1-0
100
AcDbVertex
100
AcDb2dVertex
 10
117.454334
 20
175.2011076783853
 30
0.0
  0
VERTEX
  5
1AA0
330
1A9E
100
AcDbEntity
  8
MSR1-0
100
AcDbVertex
100
AcDb2dVertex
 10
113.454334
 20
175.2011076783853
 30
0.0
  0
VERTEX
  5
1AA1
330
1A9E
100
AcDbEntity
  8
MSR1-0
100
AcDbVertex
100
AcDb2dVertex
 10
113.454334
 20
162.2011076783853
 30
0.0
  0
VERTEX
  5
1AA2
330
1A9E
100
AcDbEntity
  8
MSR1-0
100
AcDbVertex
100
AcDb2dVertex
 10
117.454334
 20
162.2011076783853
 30
0.0
  0
SEQEND
  5
1AA3
330
1A9E
100
AcDbEntity
  8
MSR1-0
  0
LINE
  5
1AA4
330
19
100
AcDbEntity
  8
MSR1-4
100
AcDbLine
 10
113.454334
 20
168.7011076783853
 30
0.0
 11
117.454334
 21
175.2011076783853
 31
0.0
  0
LINE
  5
1AA5
330
19
100
AcDbEntity
  8
MSR1-4
100
AcDbLine
 10
113.454334
 20
175.2011076783853
 30
0.0
 11
117.454334
 21
168.7011076783853
 31
0.0
  0
LINE
  5
1AA6
330
19
100
AcDbEntity
  8
MSR1-0
100
AcDbLine
 10
110.954334
 20
163.7011076783853
 30
0.0
 11
110.954334
 21
171.7011076783853
 31
0.0
  0
LINE
  5
1AA7
330
19
100
AcDbEntity
  8
MSR1-7
100
AcDbLine
 10
109.369217
 20
168.7011076783853
 30
0.0
 11
113.454334
 21
168.7011076783853
 31
0.0
  0
LINE
  5
1AA8
330
19
100
AcDbEntity
  8
MSR1-0
100
AcDbLine
 10
113.454334
 20
184.7011076783853
 30
0.0
 11
117.454334
 21
184.7011076783853
 31
0.0
  0
LINE
  5
1AA9
330
19
100
AcDbEntity
  8
MSR1-4
100
AcDbLine
 10
113.454334
 20
191.2011076783853
 30
0.0
 11
117.454334
 21
184.7011076783853
 31
0.0
  0
LINE
  5
1AAA
330
19
100
AcDbEntity
  8
MSR1-4
100
AcDbLine
 10
113.454334
 20
184.7011076783853
 30
0.0
 11
117.454334
 21
191.2011076783853
 31
0.0
  0
LINE
  5
1AAB
330
19
100
AcDbEntity
  8
MSR1-0
100
AcDbLine
 10
110.954334
 20
181.7011076783853
 30
0.0
 11
110.954334
 21
189.7011076783853
 31
0.0
  0
LINE
  5
1AAC
330
19
100
AcDbEntity
  8
MSR1-7
100
AcDbLine
 10
109.369217
 20
184.7011076783853
 30
0.0
 11
113.454334
 21
184.7011076783853
 31
0.0
  0
ARC
  5
1AAD
330
19
100
AcDbEntity
  8
MSR1-0
100
AcDbCircle
 10
136.954334
 20
133.5440139999999
 30
0.0
 40
5.0
100
AcDbArc
 50
179.999998
 51
270.000001
  0
LINE
  5
1AAE
330
19
100
AcDbEntity
  8
MSR1-3
100
AcDbLine
 10
124.954334
 20
138.344014
 30
0.0
 11
131.954334
 21
138.344014
 31
0.0
  0
LINE
  5
1AAF
330
19
100
AcDbEntity
  8
MSR1-3
100
AcDbLine
 10
124.954334
 20
138.844014
 30
0.0
 11
131.954334
 21
138.844014
 31
0.0
  0
LINE
  5
1AB0
330
19
100
AcDbEntity
  8
MSR1-3
100
AcDbLine
 10
124.954334
 20
132.844014
 30
0.0
 11
132.055354
 21
132.844014
 31
0.0
  0
LINE
  5
1AB1
330
19
100
AcDbEntity
  8
MSR1-3
100
AcDbLine
 10
124.954334
 20
133.344014
 30
0.0
 11
131.979397
 21
133.344014
 31
0.0
  0
POLYLINE
  5
1AB2
330
19
100
AcDbEntity
  8
MSR1-0
100
AcDb2dPolyline
 66
     1
 10
0.0
 20
0.0
 30
0.0
  0
VERTEX
  5
1AB3
330
1AB2
100
AcDbEntity
  8
MSR1-0
100
AcDbVertex
100
AcDb2dVertex
 10
124.954334
 20
128.844014
 30
0.0
  0
VERTEX
  5
1AB4
330
1AB2
100
AcDbEntity
  8
MSR1-0
100
AcDbVertex
100
AcDb2dVertex
 10
124.954334
 20
139.844014
 30
0.0
  0
VERTEX
  5
1AB5
330
1AB2
100
AcDbEntity
  8
MSR1-0
100
AcDbVertex
100
AcDb2dVertex
 10
131.954334
 20
139.844014
 30
0.0
  0
VERTEX
  5
1AB6
330
1AB2
100
AcDbEntity
  8
MSR1-0
100
AcDbVertex
100
AcDb2dVertex
 10
131.954334
 20
133.5440139999999
 30
0.0
  0
SEQEND
  5
1AB7
330
1AB2
100
AcDbEntity
  8
MSR1-0
  0
LINE
  5
1AB8
330
19
100
AcDbEntity
  8
MSR1-0
100
AcDbLine
 10
123.954334
 20
133.344014
 30
0.0
 11
124.954334
 21
133.344014
 31
0.0
  0
LINE
  5
1AB9
330
19
100
AcDbEntity
  8
MSR1-4
100
AcDbLine
 10
123.954334
 20
132.844014
 30
0.0
 11
124.954334
 21
132.844014
 31
0.0
  0
LINE
  5
1ABA
330
19
100
AcDbEntity
  8
MSR1-4
100
AcDbLine
 10
123.954334
 20
138.844014
 30
0.0
 11
124.954334
 21
138.844014
 31
0.0
  0
LINE
  5
1ABB
330
19
100
AcDbEntity
  8
MSR1-0
100
AcDbLine
 10
123.954334
 20
138.344014
 30
0.0
 11
124.954334
 21
138.344014
 31
0.0
  0
LINE
  5
1ABC
330
19
100
AcDbEntity
  8
MSR1-0
100
AcDbLine
 10
148.254334
 20
141.344014
 30
0.0
 11
148.254334
 21
138.344014
 31
0.0
  0
LINE
  5
1ABD
330
19
100
AcDbEntity
  8
MSR1-7
100
AcDbLine
 10
142.254334
 20
147.504445
 30
0.0
 11
142.254334
 21
139.112153
 31
0.0
  0
LINE
  5
1ABE
330
19
100
AcDbEntity
  8
MSR1-0
100
AcDbLine
 10
148.254334
 20
133.344014
 30
0.0
 11
148.254334
 21
132.344014
 31
0.0
  0
CIRCLE
  5
1ABF
330
19
100
AcDbEntity
  8
MSR1-0
100
AcDbCircle
 10
137.254334
 20
176.7011076783853
 30
0.0
 40
4.0
  0
CIRCLE
  5
1AC0
330
19
100
AcDbEntity
  8
MSR1-0
100
AcDbCircle
 10
137.254334
 20
176.7011076783853
 30
0.0
 40
3.5
  0
POLYLINE
  5
1AC1
330
19
100
AcDbEntity
  8
MSR1-0
100
AcDb2dPolyline
 66
     1
 10
0.0
 20
0.0
 30
0.0
 70
     1
  0
VERTEX
  5
1AC2
330
1AC1
100
AcDbEntity
  8
MSR1-0
100
AcDbVertex
100
AcDb2dVertex
 10
136.388308
 20
178.2011076783853
 30
0.0
  0
VERTEX
  5
1AC3
330
1AC1
100
AcDbEntity
  8
MSR1-0
100
AcDbVertex
100
AcDb2dVertex
 10
138.120359
 20
178.2011076783853
 30
0.0
  0
VERTEX
  5
1AC4
330
1AC1
100
AcDbEntity
  8
MSR1-0
100
AcDbVertex
100
AcDb2dVertex
 10
138.986385
 20
176.7011076783853
 30
0.0
  0
VERTEX
  5
1AC5
330
1AC1
100
AcDbEntity
  8
MSR1-0
100
AcDbVertex
100
AcDb2dVertex
 10
138.120359
 20
175.2011076783853
 30
0.0
  0
VERTEX
  5
1AC6
330
1AC1
100
AcDbEntity
  8
MSR1-0
100
AcDbVertex
100
AcDb2dVertex
 10
136.388308
 20
175.2011076783853
 30
0.0
  0
VERTEX
  5
1AC7
330
1AC1
100
AcDbEntity
  8
MSR1-0
100
AcDbVertex
100
AcDb2dVertex
 10
135.522283
 20
176.7011076783853
 30
0.0
  0
VERTEX
  5
1AC8
330
1AC1
100
AcDbEntity
  8
MSR1-0
100
AcDbVertex
100
AcDb2dVertex
 10
136.388308
 20
178.2011076783853
 30
0.0
  0
VERTEX
  5
1AC9
330
1AC1
100
AcDbEntity
  8
MSR1-0
100
AcDbVertex
100
AcDb2dVertex
 10
136.388308
 20
178.2011076783853
 30
0.0
  0
SEQEND
  5
1ACA
330
1AC1
100
AcDbEntity
  8
MSR1-0
  0
INSERT
  5
1ACB
330
19
100
AcDbEntity
  8
MSR1-0N
100
AcDbBlockReference
 66
     1
  2
GENINF13
 10
129.8650361695371
 20
165.2627829568797
 30
0.0
1001
GENIUS_GENSCSYM_13
1002
{
1000
INSPT
1011
129.8650361695371
1021
165.2627829568797
1031
0.0
1002
}
1002
{
1000
SCALE
1042
1.0
1002
}
1002
{
1000
USEOLDBPT
1070
     0
1002
}
1001
GENIUS_GENOBJ-N-INFOPT_13
1002
{
1000
OWNER
1000
GEN
1002
}
1001
GENIUS_GENSYMENT_13
1002
{
1000
ENT
1005
1ACB
1002
}
1001
GENIUS_GENODEF_13
1002
{
1000
HIER
1070
     0
1002
}
1002
{
1000
MANEDIT
1070
     0
1002
}
1002
{
1000
NOSEL
1070
     0
1002
}
1002
{
1000
BEHIND
1070
     0
1002
}
1002
{
1000
REACTOR
1002
}
1001
GENIUS_GENOBJ-N-RSSYM_13
1002
{
1000
OWNER
1000
GEN
1002
}
1001
GENIUS_GENINF13_13
1070
     1
  0
ATTRIB
  5
1ACC
330
1ACB
100
AcDbEntity
  8
INFO
100
AcDbText
 10
129.8650361695371
 20
165.2627829568797
 30
0.0
 40
1.0
  1
1
100
AcDbAttribute
  2
2GENINF
 70
     1
  0
ATTRIB
  5
1ACD
330
1ACB
100
AcDbEntity
  8
INFO
100
AcDbText
 10
129.8650361695371
 20
163.7627829568797
 30
0.0
 40
1.0
  1

100
AcDbAttribute
  2
3GENINF
 70
     1
  0
ATTRIB
  5
1ACE
330
1ACB
100
AcDbEntity
  8
INFO
100
AcDbText
 10
129.8650361695371
 20
162.2627829568797
 30
0.0
 40
1.0
  1

100
AcDbAttribute
  2
4GENINF
 70
     1
  0
ATTRIB
  5
1ACF
330
1ACB
100
AcDbEntity
  8
INFO
100
AcDbText
 10
129.8650361695371
 20
160.7627829568797
 30
0.0
 40
1.0
  1
MSR 1
100
AcDbAttribute
  2
5GENINF
 70
     1
  0
ATTRIB
  5
1AD0
330
1ACB
100
AcDbEntity
  8
INFO
100
AcDbText
 10
129.8650361695371
 20
159.2627829568797
 30
0.0
 40
1.0
  1

100
AcDbAttribute
  2
6GENINF
 70
     1
  0
ATTRIB
  5
1AD1
330
1ACB
100
AcDbEntity
  8
INFO
100
AcDbText
 10
129.8650361695371
 20
157.7627829568797
 30
0.0
 40
1.0
  1
Fa. Mayer
100
AcDbAttribute
  2
7GENINF
 70
     1
  0
ATTRIB
  5
1AD2
330
1ACB
100
AcDbEntity
  8
INFO
100
AcDbText
 10
129.8650361695371
 20
156.2627829568797
 30
0.0
 40
1.0
  1

100
AcDbAttribute
  2
8GENINF
 70
     1
  0
ATTRIB
  5
1AD3
330
1ACB
100
AcDbEntity
  8
INFO
100
AcDbText
 10
129.8650361695371
 20
154.7627829568797
 30
0.0
 40
1.0
  1

100
AcDbAttribute
  2
9GENINF
 70
     1
  0
ATTRIB
  5
1AD4
330
1ACB
100
AcDbEntity
  8
INFO
100
AcDbText
 10
129.8650361695371
 20
153.2627829568797
 30
0.0
 40
1.0
  1

100
AcDbAttribute
  2
10GENINF
 70
     1
  0
ATTRIB
  5
1AD5
330
1ACB
100
AcDbEntity
  8
INFO
100
AcDbText
 10
129.8650361695371
 20
151.7627829568797
 30
0.0
 40
1.0
  1

100
AcDbAttribute
  2
11GENINF
 70
     1
  0
ATTRIB
  5
1AD6
330
1ACB
100
AcDbEntity
  8
INFO
100
AcDbText
 10
129.8650361695371
 20
150.2627829568797
 30
0.0
 40
1.0
  1

100
AcDbAttribute
  2
12GENINF
 70
     1
  0
ATTRIB
  5
1AD7
330
1ACB
100
AcDbEntity
  8
INFO
100
AcDbText
 10
129.8650361695371
 20
148.7627829568797
 30
0.0
 40
1.0
  1

100
AcDbAttribute
  2
13GENINF
 70
     1
  0
ATTRIB
  5
1AD8
330
1ACB
100
AcDbEntity
  8
INFO
100
AcDbText
 10
129.8650361695371
 20
147.2627829568797
 30
0.0
 40
1.0
  1

100
AcDbAttribute
  2
14GENINF
 70
     1
  0
ATTRIB
  5
1AD9
330
1ACB
100
AcDbEntity
  8
INFO
100
AcDbText
 10
129.8650361695371
 20
145.7627829568797
 30
0.0
 40
1.0
  1

100
AcDbAttribute
  2
15GENINF
 70
     1
  0
ATTRIB
  5
1ADA
330
1ACB
100
AcDbEntity
  8
INFO
100
AcDbText
 10
129.8650361695371
 20
144.2627829568797
 30
0.0
 40
1.0
  1

100
AcDbAttribute
  2
16GENINF
 70
     1
  0
ATTRIB
  5
1ADB
330
1ACB
100
AcDbEntity
  8
INFO
100
AcDbText
 10
129.8650361695371
 20
142.7627829568797
 30
0.0
 40
1.0
  1

100
AcDbAttribute
  2
17GENINF
 70
     1
  0
ATTRIB
  5
1ADC
330
1ACB
100
AcDbEntity
  8
INFO
100
AcDbText
 10
129.8650361695371
 20
141.2627829568797
 30
0.0
 40
1.0
  1

100
AcDbAttribute
  2
18GENINF
 70
     1
  0
ATTRIB
  5
1ADD
330
1ACB
100
AcDbEntity
  8
INFO
100
AcDbText
 10
129.8650361695371
 20
139.7627829568797
 30
0.0
 40
1.0
  1

100
AcDbAttribute
  2
19GENINF
 70
     1
  0
ATTRIB
  5
1ADE
330
1ACB
100
AcDbEntity
  8
INFO
100
AcDbText
 10
129.8650361695371
 20
138.2627829568797
 30
0.0
 40
1.0
  1

100
AcDbAttribute
  2
20GENINF
 70
     1
  0
ATTRIB
  5
1ADF
330
1ACB
100
AcDbEntity
  8
INFO
100
AcDbText
 10
129.8650361695371
 20
136.7627829568797
 30
0.0
 40
1.0
  1

100
AcDbAttribute
  2
21GENINF
 70
     1
  0
ATTRIB
  5
1AE0
330
1ACB
100
AcDbEntity
  8
INFO
100
AcDbText
 10
129.8650361695371
 20
135.2627829568797
 30
0.0
 40
1.0
  1

100
AcDbAttribute
  2
22GENINF
 70
     1
  0
ATTRIB
  5
1AE1
330
1ACB
100
AcDbEntity
  8
INFO
100
AcDbText
 10
129.8650361695371
 20
133.7627829568797
 30
0.0
 40
1.0
  1

100
AcDbAttribute
  2
23GENINF
 70
     1
  0
ATTRIB
  5
1AE2
330
1ACB
100
AcDbEntity
  8
INFO
100
AcDbText
 10
129.8650361695371
 20
132.2627829568797
 30
0.0
 40
1.0
  1

100
AcDbAttribute
  2
24GENINF
 70
     1
  0
ATTRIB
  5
1AE3
330
1ACB
100
AcDbEntity
  8
INFO
100
AcDbText
 10
129.8650361695371
 20
130.7627829568797
 30
0.0
 40
1.0
  1

100
AcDbAttribute
  2
0GENINF
 70
     1
  0
SEQEND
  5
1AE4
330
1ACB
100
AcDbEntity
  8
MSR1-0N
  0
LINE
  5
1AE5
330
19
100
AcDbEntity
  8
MSR1-3
100
AcDbLine
 10
131.654334
 20
186.9428376783853
 30
0.0
 11
131.654334
 21
191.7011076783853
 31
0.0
  0
LINE
  5
1AE6
330
19
100
AcDbEntity
  8
MSR1-3
100
AcDbLine
 10
131.254334
 20
186.9428376783853
 30
0.0
 11
131.254334
 21
191.7011076783853
 31
0.0
  0
LINE
  5
1AE7
330
19
100
AcDbEntity
  8
MSR1-7
100
AcDbLine
 10
133.754334
 20
185.4455366783853
 30
0.0
 11
133.754334
 21
194.3932636783853
 31
0.0
  0
LINE
  5
1AE8
330
19
100
AcDbEntity
  8
MSR1-7
100
AcDbLine
 10
137.254334
 20
182.3716806783853
 30
0.0
 11
137.254334
 21
171.2591806783853
 31
0.0
  0
LINE
  5
1AE9
330
19
100
AcDbEntity
  8
MSR1-7
100
AcDbLine
 10
140.416664
 20
166.7011076783853
 30
0.0
 11
146.320179
 21
166.7011076783853
 31
0.0
  0
ARC
  5
1AEA
330
19
100
AcDbEntity
  8
MSR1-4
100
AcDbCircle
 10
143.254334
 20
166.7011076783853
 30
0.0
 40
2.0
100
AcDbArc
 50
89.999999
 51
0.0
  0
CIRCLE
  5
1AEB
330
19
100
AcDbEntity
  8
MSR1-0
100
AcDbCircle
 10
143.254334
 20
166.7011076783853
 30
0.0
 40
1.649999999999999
  0
LINE
  5
1AEC
330
19
100
AcDbEntity
  8
MSR1-7
100
AcDbLine
 10
143.254334
 20
169.6801596783853
 30
0.0
 11
143.254334
 21
163.4293786783853
 31
0.0
  0
LINE
  5
1AED
330
19
100
AcDbEntity
  8
MSR1-7
100
AcDbLine
 10
140.416664
 20
186.7011076783853
 30
0.0
 11
146.320179
 21
186.7011076783853
 31
0.0
  0
ARC
  5
1AEE
330
19
100
AcDbEntity
  8
MSR1-4
100
AcDbCircle
 10
143.254334
 20
186.7011076783853
 30
0.0
 40
2.0
100
AcDbArc
 50
89.999999
 51
0.0
  0
CIRCLE
  5
1AEF
330
19
100
AcDbEntity
  8
MSR1-0
100
AcDbCircle
 10
143.254334
 20
186.7011076783853
 30
0.0
 40
1.649999999999999
  0
LINE
  5
1AF0
330
19
100
AcDbEntity
  8
MSR1-3
100
AcDbLine
 10
135.854334
 20
186.9428376783853
 30
0.0
 11
135.854334
 21
191.7011076783853
 31
0.0
  0
LINE
  5
1AF1
330
19
100
AcDbEntity
  8
MSR1-3
100
AcDbLine
 10
136.254334
 20
186.9428376783853
 30
0.0
 11
136.254334
 21
191.7011076783853
 31
0.0
  0
LINE
  5
1AF2
330
19
100
AcDbEntity
  8
MSR1-3
100
AcDbLine
 10
148.854334
 20
186.9428376783853
 30
0.0
 11
148.854334
 21
191.7011076783853
 31
0.0
  0
LINE
  5
1AF3
330
19
100
AcDbEntity
  8
MSR1-3
100
AcDbLine
 10
149.254334
 20
186.9428376783853
 30
0.0
 11
149.254334
 21
191.7011076783853
 31
0.0
  0
LINE
  5
1AF4
330
19
100
AcDbEntity
  8
MSR1-3
100
AcDbLine
 10
144.654334
 20
186.9428376783853
 30
0.0
 11
144.654334
 21
191.7011076783853
 31
0.0
  0
LINE
  5
1AF5
330
19
100
AcDbEntity
  8
MSR1-3
100
AcDbLine
 10
144.254334
 20
186.9428376783853
 30
0.0
 11
144.254334
 21
191.7011076783853
 31
0.0
  0
LINE
  5
1AF6
330
19
100
AcDbEntity
  8
MSR1-7
100
AcDbLine
 10
146.754334
 20
185.4455366783853
 30
0.0
 11
146.754334
 21
194.3932636783853
 31
0.0
  0
LINE
  5
1AF7
330
19
100
AcDbEntity
  8
MSR1-7
100
AcDbLine
 10
143.254334
 20
189.6801596783853
 30
0.0
 11
143.254334
 21
183.4293786783853
 31
0.0
  0
POLYLINE
  5
1AF8
330
19
100
AcDbEntity
  8
MSR1-0
100
AcDb2dPolyline
 66
     1
 10
0.0
 20
0.0
 30
0.0
  0
VERTEX
  5
1AF9
330
1AF8
100
AcDbEntity
  8
MSR1-0
100
AcDbVertex
100
AcDb2dVertex
 10
167.754334
 20
146.344014
 30
0.0
  0
VERTEX
  5
1AFA
330
1AF8
100
AcDbEntity
  8
MSR1-0
100
AcDbVertex
100
AcDb2dVertex
 10
167.754334
 20
144.744014
 30
0.0
  0
VERTEX
  5
1AFB
330
1AF8
100
AcDbEntity
  8
MSR1-0
100
AcDbVertex
100
AcDb2dVertex
 10
160.754334
 20
144.744014
 30
0.0
  0
VERTEX
  5
1AFC
330
1AF8
100
AcDbEntity
  8
MSR1-0
100
AcDbVertex
100
AcDb2dVertex
 10
160.754334
 20
146.344014
 30
0.0
  0
SEQEND
  5
1AFD
330
1AF8
100
AcDbEntity
  8
MSR1-0
  0
POLYLINE
  5
1AFE
330
19
100
AcDbEntity
  8
MSR1-0
100
AcDb2dPolyline
 66
     1
 10
0.0
 20
0.0
 30
0.0
  0
VERTEX
  5
1AFF
330
1AFE
100
AcDbEntity
  8
MSR1-0
100
AcDbVertex
100
AcDb2dVertex
 10
160.754334
 20
141.344014
 30
0.0
  0
VERTEX
  5
1B00
330
1AFE
100
AcDbEntity
  8
MSR1-0
100
AcDbVertex
100
AcDb2dVertex
 10
160.754334
 20
142.344014
 30
0.0
  0
VERTEX
  5
1B01
330
1AFE
100
AcDbEntity
  8
MSR1-0
100
AcDbVertex
100
AcDb2dVertex
 10
167.754334
 20
142.344014
 30
0.0
  0
VERTEX
  5
1B02
330
1AFE
100
AcDbEntity
  8
MSR1-0
100
AcDbVertex
100
AcDb2dVertex
 10
167.754334
 20
141.344014
 30
0.0
  0
SEQEND
  5
1B03
330
1AFE
100
AcDbEntity
  8
MSR1-0
  0
LINE
  5
1B04
330
19
100
AcDbEntity
  8
MSR1-7
100
AcDbLine
 10
164.254334
 20
147.504445
 30
0.0
 11
164.254334
 21
139.112153
 31
0.0
  0
LINE
  5
1B05
330
19
100
AcDbEntity
  8
MSR1-0
100
AcDbLine
 10
157.754334
 20
141.344014
 30
0.0
 11
157.754334
 21
132.344014
 31
0.0
  0
LINE
  5
1B06
330
19
100
AcDbEntity
  8
MSR1-0
100
AcDbLine
 10
151.454334
 20
138.344014
 30
0.0
 11
151.454334
 21
133.344014
 31
0.0
  0
INSERT
  5
1B07
330
19
100
AcDbEntity
  8
MSR1-8
100
AcDbBlockReference
  2
*X6
 10
-0.1999999999999886
 20
0.0
 30
0.0
1001
GENIUS_GENODEF_13
1002
{
1000
HIER
1070
     0
1002
}
1002
{
1000
MANEDIT
1070
     0
1002
}
1002
{
1000
NOSEL
1070
     0
1002
}
1002
{
1000
BEHIND
1070
     0
1002
}
1002
{
1000
REACTOR
1002
}
1001
GENIUS_GENOBJ-N-HTC_13
1002
{
1000
OWNER
1000
GEN
1002
}
1001
GENIUS_GENHATCH_13
1002
{
1000
DATA
1040
45.0
1042
1.25
1000
_U
1070
     0
1011
159.1044596296396
1021
143.7511649472885
1031
0.0
1002
}
1002
{
1000
UCS
1010
0.0
1020
0.0
1030
0.0
1010
1.0
1020
0.0
1030
0.0
1010
0.0
1020
1.0
1030
0.0
1002
}
1001
ACAD
1000
HATCH
1002
{
1070
    19
1000
_U
1040
1.25
1040
0.7853981633974483
1070
     0
1002
}
  0
POLYLINE
  5
1B08
330
19
100
AcDbEntity
  8
MSR1-4
100
AcDb2dPolyline
 66
     1
 10
0.0
 20
0.0
 30
0.0
 70
     4
 75
     6
  0
VERTEX
  5
1B09
330
1B08
100
AcDbEntity
  8
MSR1-4
100
AcDbVertex
100
AcDb2dVertex
 10
158.128660087923
 20
141.344014
 30
0.0
 70
    16
  0
VERTEX
  5
1B0A
330
1B08
100
AcDbEntity
  8
MSR1-4
100
AcDbVertex
100
AcDb2dVertex
 10
158.128660087923
 20
141.344014
 30
0.0
 70
     8
  0
VERTEX
  5
1B0B
330
1B08
100
AcDbEntity
  8
MSR1-4
100
AcDbVertex
100
AcDb2dVertex
 10
158.0306506930228
 20
141.5941697168607
 30
0.0
 70
     8
  0
VERTEX
  5
1B0C
330
1B08
100
AcDbEntity
  8
MSR1-4
100
AcDbVertex
100
AcDb2dVertex
 10
157.9502540746955
 20
141.8262644863093
 30
0.0
 70
     8
  0
VERTEX
  5
1B0D
330
1B08
100
AcDbEntity
  8
MSR1-4
100
AcDbVertex
100
AcDb2dVertex
 10
157.8861558463488
 20
142.0414147531375
 30
0.0
 70
     8
  0
VERTEX
  5
1B0E
330
1B08
100
AcDbEntity
  8
MSR1-4
100
AcDbVertex
100
AcDb2dVertex
 10
157.8370416213902
 20
142.2407369621368
 30
0.0
 70
     8
  0
VERTEX
  5
1B0F
330
1B08
100
AcDbEntity
  8
MSR1-4
100
AcDbVertex
100
AcDb2dVertex
 10
157.8015970132272
 20
142.4253475580989
 30
0.0
 70
     8
  0
VERTEX
  5
1B10
330
1B08
100
AcDbEntity
  8
MSR1-4
100
AcDbVertex
100
AcDb2dVertex
 10
157.7785076352673
 20
142.5963629858154
 30
0.0
 70
     8
  0
VERTEX
  5
1B11
330
1B08
100
AcDbEntity
  8
MSR1-4
100
AcDbVertex
100
AcDb2dVertex
 10
157.7664591009181
 20
142.754899690078
 30
0.0
 70
     8
  0
VERTEX
  5
1B12
330
1B08
100
AcDbEntity
  8
MSR1-4
100
AcDbVertex
100
AcDb2dVertex
 10
157.7641370235871
 20
142.9020741156783
 30
0.0
 70
     8
  0
VERTEX
  5
1B13
330
1B08
100
AcDbEntity
  8
MSR1-4
100
AcDbVertex
100
AcDb2dVertex
 10
157.7701558208101
 20
143.0389972488633
 30
0.0
 70
     8
  0
VERTEX
  5
1B14
330
1B08
100
AcDbEntity
  8
MSR1-4
100
AcDbVertex
100
AcDb2dVertex
 10
157.7828451266357
 20
143.1667582417023
 30
0.0
 70
     8
  0
VERTEX
  5
1B15
330
1B08
100
AcDbEntity
  8
MSR1-4
100
AcDbVertex
100
AcDb2dVertex
 10
157.8004633792408
 20
143.2864407877198
 30
0.0
 70
     8
  0
VERTEX
  5
1B16
330
1B08
100
AcDbEntity
  8
MSR1-4
100
AcDbVertex
100
AcDb2dVertex
 10
157.8212690168024
 20
143.3991285804405
 30
0.0
 70
     8
  0
VERTEX
  5
1B17
330
1B08
100
AcDbEntity
  8
MSR1-4
100
AcDbVertex
100
AcDb2dVertex
 10
157.8435204774974
 20
143.5059053133889
 30
0.0
 70
     8
  0
VERTEX
  5
1B18
330
1B08
100
AcDbEntity
  8
MSR1-4
100
AcDbVertex
100
AcDb2dVertex
 10
157.8654761995025
 20
143.6078546800898
 30
0.0
 70
     8
  0
VERTEX
  5
1B19
330
1B08
100
AcDbEntity
  8
MSR1-4
100
AcDbVertex
100
AcDb2dVertex
 10
157.8853946209947
 20
143.7060603740678
 30
0.0
 70
     8
  0
VERTEX
  5
1B1A
330
1B08
100
AcDbEntity
  8
MSR1-4
100
AcDbVertex
100
AcDb2dVertex
 10
157.901534180151
 20
143.8016060888474
 30
0.0
 70
     8
  0
VERTEX
  5
1B1B
330
1B08
100
AcDbEntity
  8
MSR1-4
100
AcDbVertex
100
AcDb2dVertex
 10
157.9125366780677
 20
143.8953401703841
 30
0.0
 70
     8
  0
VERTEX
  5
1B1C
330
1B08
100
AcDbEntity
  8
MSR1-4
100
AcDbVertex
100
AcDb2dVertex
 10
157.9185773675198
 20
143.9871695743572
 30
0.0
 70
     8
  0
VERTEX
  5
1B1D
330
1B08
100
AcDbEntity
  8
MSR1-4
100
AcDbVertex
100
AcDb2dVertex
 10
157.9202148642017
 20
144.0767659088765
 30
0.0
 70
     8
  0
VERTEX
  5
1B1E
330
1B08
100
AcDbEntity
  8
MSR1-4
100
AcDbVertex
100
AcDb2dVertex
 10
157.9180077838078
 20
144.1638007820521
 30
0.0
 70
     8
  0
VERTEX
  5
1B1F
330
1B08
100
AcDbEntity
  8
MSR1-4
100
AcDbVertex
100
AcDb2dVertex
 10
157.9125147420325
 20
144.2479458019939
 30
0.0
 70
     8
  0
VERTEX
  5
1B20
330
1B08
100
AcDbEntity
  8
MSR1-4
100
AcDbVertex
100
AcDb2dVertex
 10
157.9042943545703
 20
144.3288725768121
 30
0.0
 70
     8
  0
VERTEX
  5
1B21
330
1B08
100
AcDbEntity
  8
MSR1-4
100
AcDbVertex
100
AcDb2dVertex
 10
157.8939052371157
 20
144.4062527146164
 30
0.0
 70
     8
  0
VERTEX
  5
1B22
330
1B08
100
AcDbEntity
  8
MSR1-4
100
AcDbVertex
100
AcDb2dVertex
 10
157.8819060053631
 20
144.4797578235171
 30
0.0
 70
     8
  0
VERTEX
  5
1B23
330
1B08
100
AcDbEntity
  8
MSR1-4
100
AcDbVertex
100
AcDb2dVertex
 10
157.8687621718681
 20
144.5492072881662
 30
0.0
 70
     8
  0
VERTEX
  5
1B24
330
1B08
100
AcDbEntity
  8
MSR1-4
100
AcDbVertex
100
AcDb2dVertex
 10
157.8545668366312
 20
144.615011599385
 30
0.0
 70
     8
  0
VERTEX
  5
1B25
330
1B08
100
AcDbEntity
  8
MSR1-4
100
AcDbVertex
100
AcDb2dVertex
 10
157.839319996514
 20
144.6777290245369
 30
0.0
 70
     8
  0
VERTEX
  5
1B26
330
1B08
100
AcDbEntity
  8
MSR1-4
100
AcDbVertex
100
AcDb2dVertex
 10
157.8230216483781
 20
144.7379178309853
 30
0.0
 70
     8
  0
VERTEX
  5
1B27
330
1B08
100
AcDbEntity
  8
MSR1-4
100
AcDbVertex
100
AcDb2dVertex
 10
157.8056717890853
 20
144.7961362860937
 30
0.0
 70
     8
  0
VERTEX
  5
1B28
330
1B08
100
AcDbEntity
  8
MSR1-4
100
AcDbVertex
100
AcDb2dVertex
 10
157.7872704154972
 20
144.8529426572255
 30
0.0
 70
     8
  0
VERTEX
  5
1B29
330
1B08
100
AcDbEntity
  8
MSR1-4
100
AcDbVertex
100
AcDb2dVertex
 10
157.7678175244753
 20
144.9088952117441
 30
0.0
 70
     8
  0
VERTEX
  5
1B2A
330
1B08
100
AcDbEntity
  8
MSR1-4
100
AcDbVertex
100
AcDb2dVertex
 10
157.7473131128814
 20
144.964552217013
 30
0.0
 70
     8
  0
VERTEX
  5
1B2B
330
1B08
100
AcDbEntity
  8
MSR1-4
100
AcDbVertex
100
AcDb2dVertex
 10
157.7258448042915
 20
145.0205047794408
 30
0.0
 70
     8
  0
VERTEX
  5
1B2C
330
1B08
100
AcDbEntity
  8
MSR1-4
100
AcDbVertex
100
AcDb2dVertex
 10
157.7038507291388
 20
145.0774753616169
 30
0.0
 70
     8
  0
VERTEX
  5
1B2D
330
1B08
100
AcDbEntity
  8
MSR1-4
100
AcDbVertex
100
AcDb2dVertex
 10
157.6818566445711
 20
145.1362192651759
 30
0.0
 70
     8
  0
VERTEX
  5
1B2E
330
1B08
100
AcDbEntity
  8
MSR1-4
100
AcDbVertex
100
AcDb2dVertex
 10
157.660388307736
 20
145.1974917917525
 30
0.0
 70
     8
  0
VERTEX
  5
1B2F
330
1B08
100
AcDbEntity
  8
MSR1-4
100
AcDbVertex
100
AcDb2dVertex
 10
157.6399714757811
 20
145.2620482429812
 30
0.0
 70
     8
  0
VERTEX
  5
1B30
330
1B08
100
AcDbEntity
  8
MSR1-4
100
AcDbVertex
100
AcDb2dVertex
 10
157.6211319058542
 20
145.3306439204967
 30
0.0
 70
     8
  0
VERTEX
  5
1B31
330
1B08
100
AcDbEntity
  8
MSR1-4
100
AcDbVertex
100
AcDb2dVertex
 10
157.6043953551029
 20
145.4040341259336
 30
0.0
 70
     8
  0
VERTEX
  5
1B32
330
1B08
100
AcDbEntity
  8
MSR1-4
100
AcDbVertex
100
AcDb2dVertex
 10
157.590287580675
 20
145.4829741609265
 30
0.0
 70
     8
  0
VERTEX
  5
1B33
330
1B08
100
AcDbEntity
  8
MSR1-4
100
AcDbVertex
100
AcDb2dVertex
 10
157.5794438718686
 20
145.5681003612878
 30
0.0
 70
     8
  0
VERTEX
  5
1B34
330
1B08
100
AcDbEntity
  8
MSR1-4
100
AcDbVertex
100
AcDb2dVertex
 10
157.5729376465847
 20
145.6595731995401
 30
0.0
 70
     8
  0
VERTEX
  5
1B35
330
1B08
100
AcDbEntity
  8
MSR1-4
100
AcDbVertex
100
AcDb2dVertex
 10
157.5719518548751
 20
145.7574341823843
 30
0.0
 70
     8
  0
VERTEX
  5
1B36
330
1B08
100
AcDbEntity
  8
MSR1-4
100
AcDbVertex
100
AcDb2dVertex
 10
157.5776694467912
 20
145.8617248165207
 30
0.0
 70
     8
  0
VERTEX
  5
1B37
330
1B08
100
AcDbEntity
  8
MSR1-4
100
AcDbVertex
100
AcDb2dVertex
 10
157.5912733723846
 20
145.9724866086499
 30
0.0
 70
     8
  0
VERTEX
  5
1B38
330
1B08
100
AcDbEntity
  8
MSR1-4
100
AcDbVertex
100
AcDb2dVertex
 10
157.6139465817071
 20
146.0897610654725
 30
0.0
 70
     8
  0
VERTEX
  5
1B39
330
1B08
100
AcDbEntity
  8
MSR1-4
100
AcDbVertex
100
AcDb2dVertex
 10
157.6468720248101
 20
146.213589693689
 30
0.0
 70
     8
  0
VERTEX
  5
1B3A
330
1B08
100
AcDbEntity
  8
MSR1-4
100
AcDbVertex
100
AcDb2dVertex
 10
157.6912326517453
 20
146.344014
 30
0.0
 70
     8
  0
VERTEX
  5
1B3B
330
1B08
100
AcDbEntity
  8
MSR1-4
100
AcDbVertex
100
AcDb2dVertex
 10
157.8426496557873
 20
142.036169570215
 30
0.0
 70
    16
  0
VERTEX
  5
1B3C
330
1B08
100
AcDbEntity
  8
MSR1-4
100
AcDbVertex
100
AcDb2dVertex
 10
157.6744082723791
 20
143.0113630102991
 30
0.0
 70
    16
  0
VERTEX
  5
1B3D
330
1B08
100
AcDbEntity
  8
MSR1-4
100
AcDbVertex
100
AcDb2dVertex
 10
157.9604187045148
 20
143.8184198027003
 30
0.0
 70
    16
  0
VERTEX
  5
1B3E
330
1B08
100
AcDbEntity
  8
MSR1-4
100
AcDbVertex
100
AcDb2dVertex
 10
157.8931219904679
 20
144.5245943119838
 30
0.0
 70
    16
  0
VERTEX
  5
1B3F
330
1B08
100
AcDbEntity
  8
MSR1-4
100
AcDbVertex
100
AcDb2dVertex
 10
157.7585293657923
 20
144.961749890467
 30
0.0
 70
    16
  0
VERTEX
  5
1B40
330
1B08
100
AcDbEntity
  8
MSR1-4
100
AcDbVertex
100
AcDb2dVertex
 10
157.5566392236515
 20
145.4157194282264
 30
0.0
 70
    16
  0
VERTEX
  5
1B41
330
1B08
100
AcDbEntity
  8
MSR1-4
100
AcDbVertex
100
AcDb2dVertex
 10
157.5566392236515
 20
145.9873847175332
 30
0.0
 70
    16
  0
VERTEX
  5
1B42
330
1B08
100
AcDbEntity
  8
MSR1-4
100
AcDbVertex
100
AcDb2dVertex
 10
157.6912326517453
 20
146.344014
 30
0.0
 70
    16
  0
SEQEND
  5
1B43
330
1B08
100
AcDbEntity
  8
MSR1-4
  0
LINE
  5
1B44
330
19
100
AcDbEntity
  8
MSR1-0
100
AcDbLine
 10
162.154334
 20
144.744014
 30
0.0
 11
162.154334
 21
142.344014
 31
0.0
  0
LINE
  5
1B45
330
19
100
AcDbEntity
  8
MSR1-0
100
AcDbLine
 10
165.754334
 20
141.344014
 30
0.0
 11
165.754334
 21
132.344014
 31
0.0
  0
INSERT
  5
1B46
330
19
100
AcDbEntity
  8
MSR1-8
100
AcDbBlockReference
  2
*X7
 10
-0.1999999999999886
 20
0.0
 30
0.0
1001
GENIUS_GENODEF_13
1002
{
1000
HIER
1070
     0
1002
}
1002
{
1000
MANEDIT
1070
     0
1002
}
1002
{
1000
NOSEL
1070
     0
1002
}
1002
{
1000
BEHIND
1070
     0
1002
}
1002
{
1000
REACTOR
1002
}
1001
GENIUS_GENOBJ-N-HTC_13
1002
{
1000
OWNER
1000
GEN
1002
}
1001
GENIUS_GENHATCH_13
1002
{
1000
DATA
1040
45.0
1042
1.25
1000
_U
1070
     0
1011
167.5165279966308
1021
143.6166557273117
1031
0.0
1002
}
1002
{
1000
UCS
1010
0.0
1020
0.0
1030
0.0
1010
1.0
1020
0.0
1030
0.0
1010
0.0
1020
1.0
1030
0.0
1002
}
1001
ACAD
1000
HATCH
1002
{
1070
    19
1000
_U
1040
1.25
1040
0.7853981633974483
1070
     0
1002
}
  0
LINE
  5
1B47
330
19
100
AcDbEntity
  8
MSR1-0
100
AcDbLine
 10
166.354334
 20
144.744014
 30
0.0
 11
166.354334
 21
142.344014
 31
0.0
  0
LINE
  5
1B48
330
19
100
AcDbEntity
  8
MSR1-7
100
AcDbLine
 10
160.416664
 20
186.7011076783853
 30
0.0
 11
166.320179
 21
186.7011076783853
 31
0.0
  0
CIRCLE
  5
1B49
330
19
100
AcDbEntity
  8
MSR1-0
100
AcDbCircle
 10
163.254334
 20
186.7011076783853
 30
0.0
 40
1.649999999999999
  0
ARC
  5
1B4A
330
19
100
AcDbEntity
  8
MSR1-4
100
AcDbCircle
 10
163.254334
 20
186.7011076783853
 30
0.0
 40
2.0
100
AcDbArc
 50
89.999999
 51
0.0
  0
LINE
  5
1B4B
330
19
100
AcDbEntity
  8
MSR1-7
100
AcDbLine
 10
160.416664
 20
166.7011076783853
 30
0.0
 11
166.320179
 21
166.7011076783853
 31
0.0
  0
ARC
  5
1B4C
330
19
100
AcDbEntity
  8
MSR1-4
100
AcDbCircle
 10
163.254334
 20
166.7011076783853
 30
0.0
 40
2.0
100
AcDbArc
 50
89.999999
 51
0.0
  0
CIRCLE
  5
1B4D
330
19
100
AcDbEntity
  8
MSR1-0
100
AcDbCircle
 10
163.254334
 20
166.7011076783853
 30
0.0
 40
1.649999999999999
  0
LINE
  5
1B4E
330
19
100
AcDbEntity
  8
MSR1-7
100
AcDbLine
 10
153.254334
 20
193.1283706783853
 30
0.0
 11
153.254334
 21
163.2101016783853
 31
0.0
  0
CIRCLE
  5
1B4F
330
19
100
AcDbEntity
  8
MSR1-0
100
AcDbCircle
 10
153.254334
 20
166.7011076783853
 30
0.0
 40
2.0
  0
LINE
  5
1B50
330
19
100
AcDbEntity
  8
MSR1-7
100
AcDbLine
 10
163.254334
 20
169.6801596783853
 30
0.0
 11
163.254334
 21
163.4293786783853
 31
0.0
  0
CIRCLE
  5
1B51
330
19
100
AcDbEntity
  8
MSR1-0
100
AcDbCircle
 10
153.254334
 20
186.7011076783853
 30
0.0
 40
2.0
  0
LINE
  5
1B52
330
19
100
AcDbEntity
  8
MSR1-7
100
AcDbLine
 10
163.254334
 20
189.6801596783853
 30
0.0
 11
163.254334
 21
183.4293786783853
 31
0.0
  0
CIRCLE
  5
1B53
330
19
100
AcDbEntity
  8
MSR1-0
100
AcDbCircle
 10
169.254334
 20
176.7011076783853
 30
0.0
 40
3.5
  0
LINE
  5
1B54
330
19
100
AcDbEntity
  8
MSR1-7
100
AcDbLine
 10
169.254334
 20
182.3716806783853
 30
0.0
 11
169.254334
 21
171.2591806783853
 31
0.0
  0
CIRCLE
  5
1B55
330
19
100
AcDbEntity
  8
MSR1-0
100
AcDbCircle
 10
169.254334
 20
176.7011076783853
 30
0.0
 40
4.0
  0
POLYLINE
  5
1B56
330
19
100
AcDbEntity
  8
MSR1-0
100
AcDb2dPolyline
 66
     1
 10
0.0
 20
0.0
 30
0.0
 70
     1
  0
VERTEX
  5
1B57
330
1B56
100
AcDbEntity
  8
MSR1-0
100
AcDbVertex
100
AcDb2dVertex
 10
170.120359
 20
178.2011076783853
 30
0.0
  0
VERTEX
  5
1B58
330
1B56
100
AcDbEntity
  8
MSR1-0
100
AcDbVertex
100
AcDb2dVertex
 10
168.388308
 20
178.2011076783853
 30
0.0
  0
VERTEX
  5
1B59
330
1B56
100
AcDbEntity
  8
MSR1-0
100
AcDbVertex
100
AcDb2dVertex
 10
167.522283
 20
176.7011076783853
 30
0.0
  0
VERTEX
  5
1B5A
330
1B56
100
AcDbEntity
  8
MSR1-0
100
AcDbVertex
100
AcDb2dVertex
 10
168.388308
 20
175.2011076783853
 30
0.0
  0
VERTEX
  5
1B5B
330
1B56
100
AcDbEntity
  8
MSR1-0
100
AcDbVertex
100
AcDb2dVertex
 10
170.120359
 20
175.2011076783853
 30
0.0
  0
VERTEX
  5
1B5C
330
1B56
100
AcDbEntity
  8
MSR1-0
100
AcDbVertex
100
AcDb2dVertex
 10
170.986385
 20
176.7011076783853
 30
0.0
  0
VERTEX
  5
1B5D
330
1B56
100
AcDbEntity
  8
MSR1-0
100
AcDbVertex
100
AcDb2dVertex
 10
170.120359
 20
178.2011076783853
 30
0.0
  0
VERTEX
  5
1B5E
330
1B56
100
AcDbEntity
  8
MSR1-0
100
AcDbVertex
100
AcDb2dVertex
 10
170.120359
 20
178.2011076783853
 30
0.0
  0
SEQEND
  5
1B5F
330
1B56
100
AcDbEntity
  8
MSR1-0
  0
ENDSEC
  0
SECTION
  2
OBJECTS
  0
DICTIONARY
  5
C
330
0
100
AcDbDictionary
281
     1
  3
ACAD_COLOR
350
1B8E
  3
ACAD_GROUP
350
D
  3
ACAD_LAYOUT
350
1BB6
  3
ACAD_MATERIAL
350
1B64
  3
ACAD_MLEADERSTYLE
350
1BB3
  3
ACAD_MLINESTYLE
350
E
  3
ACAD_PLOTSETTINGS
350
1BB7
  3
ACAD_PLOTSTYLENAME
350
1B62
  3
ACAD_SCALELIST
350
1B91
  3
ACAD_TABLESTYLE
350
1B8F
  3
ACAD_VISUALSTYLE
350
1B7D
  3
ACDB_RECOMPOSE_DATA
350
1C72
  3
AcDbVariableDictionary
350
1C69
  3
AcmDictionary
350
1C18
  3
AcmSystemVariableManager
350
1C80
  3
AMG
350
1BBD
  3
AMGSNAPSETTINGS
350
1C62
  3
DWGPROPS
350
1C73
  0
DICTIONARY
  5
1B8E
102
{ACAD_REACTORS
330
C
102
}
330
C
100
AcDbDictionary
281
     1
  0
DICTIONARY
  5
D
102
{ACAD_REACTORS
330
C
102
}
330
C
100
AcDbDictionary
281
     1
  0
DICTIONARY
  5
1BB6
102
{ACAD_REACTORS
330
C
102
}
330
C
100
AcDbDictionary
281
     1
  3
Layout1
350
1BB9
  3
Model
350
1BB8
  0
DICTIONARY
  5
1B64
102
{ACAD_REACTORS
330
C
102
}
330
C
100
AcDbDictionary
281
     1
  3
ByBlock
350
1B6D
  3
ByLayer
350
1B65
  3
Global
350
1B75
  0
DICTIONARY
  5
1BB3
102
{ACAD_REACTORS
330
C
102
}
330
C
100
AcDbDictionary
281
     1
  3
Standard
350
1BB4
  0
DICTIONARY
  5
E
102
{ACAD_REACTORS
330
C
102
}
330
C
100
AcDbDictionary
281
     1
  3
STANDARD
350
1C
  0
DICTIONARY
  5
1BB7
102
{ACAD_REACTORS
330
C
102
}
330
C
100
AcDbDictionary
281
     1
  0
ACDBDICTIONARYWDFLT
  5
1B62
102
{ACAD_REACTORS
330
C
102
}
330
C
100
AcDbDictionary
281
     1
  3
Normal
350
1B63
100
AcDbDictionaryWithDefault
340
1B63
  0
DICTIONARY
  5
1B91
102
{ACAD_REACTORS
330
C
102
}
330
C
100
AcDbDictionary
281
     1
  3
A0
350
1B92
  3
A1
350
1B93
  3
A2
350
1B94
  3
A3
350
1B95
  3
A4
350
1B96
  3
A5
350
1B97
  3
A6
350
1B98
  3
A7
350
1B99
  3
A8
350
1B9A
  3
A9
350
1B9B
  3
B0
350
1B9C
  3
B1
350
1B9D
  3
B2
350
1B9E
  3
B3
350
1B9F
  3
B4
350
1BA0
  3
B5
350
1BA1
  3
B6
350
1BA2
  3
B7
350
1BA3
  3
B8
350
1BA4
  3
B9
350
1BA5
  3
C0
350
1BA6
  3
C1
350
1BA7
  3
C2
350
1BA8
  3
C3
350
1BA9
  3
C4
350
1BAA
  3
C5
350
1BAB
  3
C6
350
1BAC
  3
C7
350
1BAD
  3
C8
350
1BAE
  3
C9
350
1BAF
  3
D0
350
1BB0
  3
D1
350
1BB1
  3
D2
350
1BB2
  0
DICTIONARY
  5
1B8F
102
{ACAD_REACTORS
330
C
102
}
330
C
100
AcDbDictionary
281
     1
  3
Standard
350
1B90
  0
DICTIONARY
  5
1B7D
102
{ACAD_REACTORS
330
C
102
}
330
C
100
AcDbDictionary
281
     1
  3
2dWireframe
350
1B83
  3
3D Hidden
350
1B85
  3
3dWireframe
350
1B84
  3
Basic
350
1B82
  3
Brighten
350
1B89
  3
ColorChange
350
1B8D
  3
Conceptual
350
1B86
  3
Dim
350
1B88
  3
Facepattern
350
1B8C
  3
Flat
350
1B7E
  3
FlatWithEdges
350
1B7F
  3
Gouraud
350
1B80
  3
GouraudWithEdges
350
1B81
  3
Linepattern
350
1B8B
  3
Realistic
350
1B87
  3
Thicken
350
1B8A
  0
XRECORD
  5
1C72
102
{ACAD_REACTORS
330
C
102
}
330
C
100
AcDbXrecord
280
     1
 90
        1
330
1B90
  0
DICTIONARY
  5
1C69
102
{ACAD_REACTORS
330
C
102
}
330
C
100
AcDbDictionary
281
     1
  3
CANNOSCALE
350
1C6C
  3
CMLEADERSTYLE
350
1C6B
  3
CTABLESTYLE
350
1C6A
  3
DIMASSOC
350
1C6F
  3
INDEXCTL
350
1C6E
  3
SORTENTS
350
1C6D
  0
DICTIONARY
  5
1C18
102
{ACAD_REACTORS
330
C
102
}
330
C
100
AcDbDictionary
281
     1
  3
AcmStdDictionary
350
1C23
  0
DICTIONARY
  5
1BBD
102
{ACAD_REACTORS
330
C
102
}
330
C
100
AcDbDictionary
281
     1
  0
DICTIONARY
  5
1C62
102
{ACAD_REACTORS
330
C
102
}
330
C
100
AcDbDictionary
281
     1
  0
XRECORD
  5
1C73
102
{ACAD_REACTORS
330
C
102
}
330
C
100
AcDbXrecord
280
     1
  1
DWGPROPS COOKIE
  2

  3

  4

  6

  7

  8
bauer_sven
  9

300
=
301
=
302
=
303
=
304
=
305
=
306
=
307
=
308
=
309
=
 40
0.0621288078703704
 41
2450844.326254491
 42
2456226.382021852
  1

 90
        0
  0
LAYOUT
  5
1BB9
102
{ACAD_XDICTIONARY
360
1C7A
102
}
102
{ACAD_REACTORS
330
1BB6
102
}
330
1BB6
100
AcDbPlotSettings
  1

  2
iR 2570CN-010
  4

  6

 40
0.0
 41
0.0
 42
0.0
 43
0.0
 44
0.0
 45
0.0
 46
0.0
 47
0.0
 48
0.0
 49
0.0
140
0.0
141
0.0
142
1.0
143
1.0
 70
   688
 72
     0
 73
     0
 74
     5
  7

 75
    16
147
1.0
148
0.0
149
0.0
100
AcDbLayout
  1
Layout1
 70
     1
 71
     1
 10
0.0
 20
0.0
 11
12.0
 21
9.0
 12
0.0
 22
0.0
 32
0.0
 14
1.000000000000000E+20
 24
1.000000000000000E+20
 34
1.000000000000000E+20
 15
-1.000000000000000E+20
 25
-1.000000000000000E+20
 35
-1.000000000000000E+20
146
0.0
 13
0.0
 23
0.0
 33
0.0
 16
1.0
 26
0.0
 36
0.0
 17
0.0
 27
1.0
 37
0.0
 76
     0
330
16
  0
LAYOUT
  5
1BB8
102
{ACAD_XDICTIONARY
360
1C78
102
}
102
{ACAD_REACTORS
330
1BB6
102
}
330
1BB6
100
AcDbPlotSettings
  1

  2
iR 2570CN-010
  4

  6

 40
0.0
 41
0.0
 42
0.0
 43
0.0
 44
0.0
 45
0.0
 46
0.0
 47
0.0
 48
0.0
 49
0.0
140
0.0
141
0.0
142
1.0
143
1.0
 70
  1712
 72
     0
 73
     0
 74
     0
  7

 75
     0
147
1.0
148
0.0
149
0.0
100
AcDbLayout
  1
Model
 70
     1
 71
     0
 10
0.0
 20
0.0
 11
12.0
 21
9.0
 12
0.0
 22
0.0
 32
0.0
 14
0.0
 24
0.0
 34
0.0
 15
0.0
 25
0.0
 35
0.0
146
0.0
 13
0.0
 23
0.0
 33
0.0
 16
1.0
 26
0.0
 36
0.0
 17
0.0
 27
1.0
 37
0.0
 76
     0
330
19
331
1B60
  0
MATERIAL
  5
1B6D
102
{ACAD_XDICTIONARY
360
1B6E
102
}
102
{ACAD_REACTORS
330
1B64
102
}
330
1B64
100
AcDbMaterial
  1
ByBlock
 72
     0
 43
0.0208333333333333
 43
0.0
 43
0.0
 43
0.0
 43
0.0
 43
0.0208333333333333
 43
0.0
 43
0.0
 43
0.0
 43
0.0
 43
1.0
 43
0.0
 43
0.0
 43
0.0
 43
0.0
 43
1.0
 77
     0
 47
0.0208333333333333
 47
0.0
 47
0.0
 47
0.0
 47
0.0
 47
0.0208333333333333
 47
0.0
 47
0.0
 47
0.0
 47
0.0
 47
1.0
 47
0.0
 47
0.0
 47
0.0
 47
0.0
 47
1.0
171
     0
 49
0.0208333333333333
 49
0.0
 49
0.0
 49
0.0
 49
0.0
 49
0.0208333333333333
 49
0.0
 49
0.0
 49
0.0
 49
0.0
 49
1.0
 49
0.0
 49
0.0
 49
0.0
 49
0.0
 49
1.0
175
     0
142
0.0208333333333333
142
0.0
142
0.0
142
0.0
142
0.0
142
0.0208333333333333
142
0.0
142
0.0
142
0.0
142
0.0
142
1.0
142
0.0
142
0.0
142
0.0
142
0.0
142
1.0
179
     0
144
0.0208333333333333
144
0.0
144
0.0
144
0.0
144
0.0
144
0.0208333333333333
144
0.0
144
0.0
144
0.0
144
0.0
144
1.0
144
0.0
144
0.0
144
0.0
144
0.0
144
1.0
147
0.0208333333333333
147
0.0
147
0.0
147
0.0
147
0.0
147
0.0208333333333333
147
0.0
147
0.0
147
0.0
147
0.0
147
1.0
147
0.0
147
0.0
147
0.0
147
0.0
147
1.0
  0
MATERIAL
  5
1B65
102
{ACAD_XDICTIONARY
360
1B66
102
}
102
{ACAD_REACTORS
330
1B64
102
}
330
1B64
100
AcDbMaterial
  1
ByLayer
 72
     0
 43
0.0208333333333333
 43
0.0
 43
0.0
 43
0.0
 43
0.0
 43
0.0208333333333333
 43
0.0
 43
0.0
 43
0.0
 43
0.0
 43
1.0
 43
0.0
 43
0.0
 43
0.0
 43
0.0
 43
1.0
 77
     0
 47
0.0208333333333333
 47
0.0
 47
0.0
 47
0.0
 47
0.0
 47
0.0208333333333333
 47
0.0
 47
0.0
 47
0.0
 47
0.0
 47
1.0
 47
0.0
 47
0.0
 47
0.0
 47
0.0
 47
1.0
171
     0
 49
0.0208333333333333
 49
0.0
 49
0.0
 49
0.0
 49
0.0
 49
0.0208333333333333
 49
0.0
 49
0.0
 49
0.0
 49
0.0
 49
1.0
 49
0.0
 49
0.0
 49
0.0
 49
0.0
 49
1.0
175
     0
142
0.0208333333333333
142
0.0
142
0.0
142
0.0
142
0.0
142
0.0208333333333333
142
0.0
142
0.0
142
0.0
142
0.0
142
1.0
142
0.0
142
0.0
142
0.0
142
0.0
142
1.0
179
     0
144
0.0208333333333333
144
0.0
144
0.0
144
0.0
144
0.0
144
0.0208333333333333
144
0.0
144
0.0
144
0.0
144
0.0
144
1.0
144
0.0
144
0.0
144
0.0
144
0.0
144
1.0
147
0.0208333333333333
147
0.0
147
0.0
147
0.0
147
0.0
147
0.0208333333333333
147
0.0
147
0.0
147
0.0
147
0.0
147
1.0
147
0.0
147
0.0
147
0.0
147
0.0
147
1.0
  0
MATERIAL
  5
1B75
102
{ACAD_XDICTIONARY
360
1B76
102
}
102
{ACAD_REACTORS
330
1B64
102
}
330
1B64
100
AcDbMaterial
  1
Global
 72
     0
 43
0.0208333333333333
 43
0.0
 43
0.0
 43
0.0
 43
0.0
 43
0.0208333333333333
 43
0.0
 43
0.0
 43
0.0
 43
0.0
 43
1.0
 43
0.0
 43
0.0
 43
0.0
 43
0.0
 43
1.0
 77
     0
 47
0.0208333333333333
 47
0.0
 47
0.0
 47
0.0
 47
0.0
 47
0.0208333333333333
 47
0.0
 47
0.0
 47
0.0
 47
0.0
 47
1.0
 47
0.0
 47
0.0
 47
0.0
 47
0.0
 47
1.0
171
     0
 49
0.0208333333333333
 49
0.0
 49
0.0
 49
0.0
 49
0.0
 49
0.0208333333333333
 49
0.0
 49
0.0
 49
0.0
 49
0.0
 49
1.0
 49
0.0
 49
0.0
 49
0.0
 49
0.0
 49
1.0
175
     0
142
0.0208333333333333
142
0.0
142
0.0
142
0.0
142
0.0
142
0.0208333333333333
142
0.0
142
0.0
142
0.0
142
0.0
142
1.0
142
0.0
142
0.0
142
0.0
142
0.0
142
1.0
179
     0
144
0.0208333333333333
144
0.0
144
0.0
144
0.0
144
0.0
144
0.0208333333333333
144
0.0
144
0.0
144
0.0
144
0.0
144
1.0
144
0.0
144
0.0
144
0.0
144
0.0
144
1.0
147
0.0208333333333333
147
0.0
147
0.0
147
0.0
147
0.0
147
0.0208333333333333
147
0.0
147
0.0
147
0.0
147
0.0
147
1.0
147
0.0
147
0.0
147
0.0
147
0.0
147
1.0
  0
MLEADERSTYLE
  5
1BB4
102
{ACAD_REACTORS
330
1BB3
102
}
330
1BB3
100
AcDbMLeaderStyle
170
     2
171
     1
172
     0
 90
        2
 40
0.0
 41
0.0
173
     1
 91
-1056964608
340
13
 92
       -2
290
     1
 42
0.09
291
     1
 43
0.36
  3
Standard
 44
0.18
300

342
10
174
     1
178
     6
175
     1
176
     0
 93
-1056964608
 45
0.18
292
     0
297
     0
 46
0.18
 94
-1056964608
 47
1.0
 49
1.0
140
1.0
293
     1
141
0.0
294
     1
177
     0
142
1.0
295
     0
296
     0
143
0.125
1001
ACAD_MLEADERVER
1070
     2
  0
MLINESTYLE
  5
1C
102
{ACAD_REACTORS
330
E
102
}
330
E
100
AcDbMlineStyle
  2
STANDARD
 70
     0
  3

 62
     0
 51
90.0
 52
90.0
 71
     2
 49
0.5
 62
   256
  6
BYLAYER
 49
-0.5
 62
   256
  6
BYLAYER
  0
ACDBPLACEHOLDER
  5
1B63
102
{ACAD_REACTORS
330
1B62
102
}
330
1B62
  0
SCALE
  5
1B92
102
{ACAD_REACTORS
330
1B91
102
}
330
1B91
100
AcDbScale
 70
     0
300
1:1
140
1.0
141
1.0
290
     1
  0
SCALE
  5
1B93
102
{ACAD_REACTORS
330
1B91
102
}
330
1B91
100
AcDbScale
 70
     0
300
1:2
140
1.0
141
2.0
290
     0
  0
SCALE
  5
1B94
102
{ACAD_REACTORS
330
1B91
102
}
330
1B91
100
AcDbScale
 70
     0
300
1:4
140
1.0
141
4.0
290
     0
  0
SCALE
  5
1B95
102
{ACAD_REACTORS
330
1B91
102
}
330
1B91
100
AcDbScale
 70
     0
300
1:5
140
1.0
141
5.0
290
     0
  0
SCALE
  5
1B96
102
{ACAD_REACTORS
330
1B91
102
}
330
1B91
100
AcDbScale
 70
     0
300
1:8
140
1.0
141
8.0
290
     0
  0
SCALE
  5
1B97
102
{ACAD_REACTORS
330
1B91
102
}
330
1B91
100
AcDbScale
 70
     0
300
1:10
140
1.0
141
10.0
290
     0
  0
SCALE
  5
1B98
102
{ACAD_REACTORS
330
1B91
102
}
330
1B91
100
AcDbScale
 70
     0
300
1:16
140
1.0
141
16.0
290
     0
  0
SCALE
  5
1B99
102
{ACAD_REACTORS
330
1B91
102
}
330
1B91
100
AcDbScale
 70
     0
300
1:20
140
1.0
141
20.0
290
     0
  0
SCALE
  5
1B9A
102
{ACAD_REACTORS
330
1B91
102
}
330
1B91
100
AcDbScale
 70
     0
300
1:30
140
1.0
141
30.0
290
     0
  0
SCALE
  5
1B9B
102
{ACAD_REACTORS
330
1B91
102
}
330
1B91
100
AcDbScale
 70
     0
300
1:40
140
1.0
141
40.0
290
     0
  0
SCALE
  5
1B9C
102
{ACAD_REACTORS
330
1B91
102
}
330
1B91
100
AcDbScale
 70
     0
300
1:50
140
1.0
141
50.0
290
     0
  0
SCALE
  5
1B9D
102
{ACAD_REACTORS
330
1B91
102
}
330
1B91
100
AcDbScale
 70
     0
300
1:100
140
1.0
141
100.0
290
     0
  0
SCALE
  5
1B9E
102
{ACAD_REACTORS
330
1B91
102
}
330
1B91
100
AcDbScale
 70
     0
300
2:1
140
2.0
141
1.0
290
     0
  0
SCALE
  5
1B9F
102
{ACAD_REACTORS
330
1B91
102
}
330
1B91
100
AcDbScale
 70
     0
300
4:1
140
4.0
141
1.0
290
     0
  0
SCALE
  5
1BA0
102
{ACAD_REACTORS
330
1B91
102
}
330
1B91
100
AcDbScale
 70
     0
300
8:1
140
8.0
141
1.0
290
     0
  0
SCALE
  5
1BA1
102
{ACAD_REACTORS
330
1B91
102
}
330
1B91
100
AcDbScale
 70
     0
300
10:1
140
10.0
141
1.0
290
     0
  0
SCALE
  5
1BA2
102
{ACAD_REACTORS
330
1B91
102
}
330
1B91
100
AcDbScale
 70
     0
300
100:1
140
100.0
141
1.0
290
     0
  0
SCALE
  5
1BA3
102
{ACAD_REACTORS
330
1B91
102
}
330
1B91
100
AcDbScale
 70
     0
300
1/128" = 1'-0"
140
0.0078125
141
12.0
290
     0
  0
SCALE
  5
1BA4
102
{ACAD_REACTORS
330
1B91
102
}
330
1B91
100
AcDbScale
 70
     0
300
1/64" = 1'-0"
140
0.015625
141
12.0
290
     0
  0
SCALE
  5
1BA5
102
{ACAD_REACTORS
330
1B91
102
}
330
1B91
100
AcDbScale
 70
     0
300
1/32" = 1'-0"
140
0.03125
141
12.0
290
     0
  0
SCALE
  5
1BA6
102
{ACAD_REACTORS
330
1B91
102
}
330
1B91
100
AcDbScale
 70
     0
300
1/16" = 1'-0"
140
0.0625
141
12.0
290
     0
  0
SCALE
  5
1BA7
102
{ACAD_REACTORS
330
1B91
102
}
330
1B91
100
AcDbScale
 70
     0
300
3/32" = 1'-0"
140
0.09375
141
12.0
290
     0
  0
SCALE
  5
1BA8
102
{ACAD_REACTORS
330
1B91
102
}
330
1B91
100
AcDbScale
 70
     0
300
1/8" = 1'-0"
140
0.125
141
12.0
290
     0
  0
SCALE
  5
1BA9
102
{ACAD_REACTORS
330
1B91
102
}
330
1B91
100
AcDbScale
 70
     0
300
3/16" = 1'-0"
140
0.1875
141
12.0
290
     0
  0
SCALE
  5
1BAA
102
{ACAD_REACTORS
330
1B91
102
}
330
1B91
100
AcDbScale
 70
     0
300
1/4" = 1'-0"
140
0.25
141
12.0
290
     0
  0
SCALE
  5
1BAB
102
{ACAD_REACTORS
330
1B91
102
}
330
1B91
100
AcDbScale
 70
     0
300
3/8" = 1'-0"
140
0.375
141
12.0
290
     0
  0
SCALE
  5
1BAC
102
{ACAD_REACTORS
330
1B91
102
}
330
1B91
100
AcDbScale
 70
     0
300
1/2" = 1'-0"
140
0.5
141
12.0
290
     0
  0
SCALE
  5
1BAD
102
{ACAD_REACTORS
330
1B91
102
}
330
1B91
100
AcDbScale
 70
     0
300
3/4" = 1'-0"
140
0.75
141
12.0
290
     0
  0
SCALE
  5
1BAE
102
{ACAD_REACTORS
330
1B91
102
}
330
1B91
100
AcDbScale
 70
     0
300
1" = 1'-0"
140
1.0
141
12.0
290
     0
  0
SCALE
  5
1BAF
102
{ACAD_REACTORS
330
1B91
102
}
330
1B91
100
AcDbScale
 70
     0
300
1-1/2" = 1'-0"
140
1.5
141
12.0
290
     0
  0
SCALE
  5
1BB0
102
{ACAD_REACTORS
330
1B91
102
}
330
1B91
100
AcDbScale
 70
     0
300
3" = 1'-0"
140
3.0
141
12.0
290
     0
  0
SCALE
  5
1BB1
102
{ACAD_REACTORS
330
1B91
102
}
330
1B91
100
AcDbScale
 70
     0
300
6" = 1'-0"
140
6.0
141
12.0
290
     0
  0
SCALE
  5
1BB2
102
{ACAD_REACTORS
330
1B91
102
}
330
1B91
100
AcDbScale
 70
     0
300
1'-0" = 1'-0"
140
12.0
141
12.0
290
     0
  0
TABLESTYLE
  5
1B90
102
{ACAD_XDICTIONARY
360
1C70
102
}
102
{ACAD_REACTORS
330
1B8F
102
}
330
1B8F
100
AcDbTableStyle
  3
Standard
 70
     0
 71
     0
 40
0.06
 41
0.06
280
     0
281
     0
  7
STANDARD
140
0.18
170
     2
 62
     0
 63
     7
283
     0
274
    -2
284
     1
 64
     0
275
    -2
285
     1
 65
     0
276
    -2
286
     1
 66
     0
277
    -2
287
     1
 67
     0
278
    -2
288
     1
 68
     0
279
    -2
289
     1
 69
     0
  7
STANDARD
140
0.25
170
     5
 62
     0
 63
     7
283
     0
274
    -2
284
     1
 64
     0
275
    -2
285
     1
 65
     0
276
    -2
286
     1
 66
     0
277
    -2
287
     1
 67
     0
278
    -2
288
     1
 68
     0
279
    -2
289
     1
 69
     0
  7
STANDARD
140
0.18
170
     5
 62
     0
 63
     7
283
     0
274
    -2
284
     1
 64
     0
275
    -2
285
     1
 65
     0
276
    -2
286
     1
 66
     0
277
    -2
287
     1
 67
     0
278
    -2
288
     1
 68
     0
279
    -2
289
     1
 69
     0
  0
VISUALSTYLE
  5
1B83
102
{ACAD_REACTORS
330
1B7D
102
}
330
1B7D
100
AcDbVisualStyle
  2
2dWireframe
 70
     4
 71
     0
 72
     2
 73
     0
 90
        0
 40
-0.6
 41
-30.0
 62
     5
 63
     7
 74
     1
 91
        4
 64
     7
 65
   257
 75
     1
175
     1
 42
1.0
 92
        0
 66
   257
 43
1.0
 76
     1
 77
     6
 78
     2
 67
     7
 79
     5
170
     0
171
     0
290
     0
174
     0
 93
        1
 44
0.0
173
     0
291
     0
 45
0.0
1001
ACAD
1000
AcDbSavedByObjectVersion
1070
     0
  0
VISUALSTYLE
  5
1B85
102
{ACAD_REACTORS
330
1B7D
102
}
330
1B7D
100
AcDbVisualStyle
  2
3D Hidden
 70
     6
 71
     1
 72
     2
 73
     2
 90
        0
 40
-0.6
 41
-30.0
 62
     5
 63
     7
 74
     2
 91
        2
 64
     7
 65
   257
 75
     2
175
     1
 42
40.0
 92
        0
 66
   257
 43
1.0
 76
     1
 77
     6
 78
     2
 67
     7
 79
     3
170
     0
171
     0
290
     0
174
     0
 93
        1
 44
0.0
173
     0
291
     0
 45
0.0
1001
ACAD
1000
AcDbSavedByObjectVersion
1070
     0
  0
VISUALSTYLE
  5
1B84
102
{ACAD_REACTORS
330
1B7D
102
}
330
1B7D
100
AcDbVisualStyle
  2
3dWireframe
 70
     5
 71
     0
 72
     2
 73
     0
 90
        0
 40
-0.6
 41
-30.0
 62
     5
 63
     7
 74
     1
 91
        4
 64
     7
 65
   257
 75
     1
175
     1
 42
1.0
 92
        0
 66
   257
 43
1.0
 76
     1
 77
     6
 78
     2
 67
     7
 79
     5
170
     0
171
     0
290
     0
174
     0
 93
        1
 44
0.0
173
     0
291
     0
 45
0.0
1001
ACAD
1000
AcDbSavedByObjectVersion
1070
     0
  0
VISUALSTYLE
  5
1B82
102
{ACAD_REACTORS
330
1B7D
102
}
330
1B7D
100
AcDbVisualStyle
  2
Basic
 70
     7
 71
     1
 72
     0
 73
     1
 90
        0
 40
-0.6
 41
-30.0
 62
     5
 63
     7
 74
     0
 91
        4
 64
     7
 65
   257
 75
     1
175
     1
 42
1.0
 92
        8
 66
     7
 43
1.0
 76
     1
 77
     6
 78
     2
 67
     7
 79
     5
170
     0
171
     0
290
     0
174
     0
 93
        1
 44
0.0
173
     0
291
     1
 45
0.0
1001
ACAD
1000
AcDbSavedByObjectVersion
1070
     0
  0
VISUALSTYLE
  5
1B89
102
{ACAD_REACTORS
330
1B7D
102
}
330
1B7D
100
AcDbVisualStyle
  2
Brighten
 70
    12
 71
     2
 72
     2
 73
     0
 90
        0
 40
-0.6
 41
-30.0
 62
     5
 63
     7
 74
     1
 91
        4
 64
     7
 65
   257
 75
     1
175
     1
 42
1.0
 92
        8
 66
     7
 43
1.0
 76
     1
 77
     6
 78
     2
 67
     7
 79
     5
170
     0
171
     0
290
     0
174
     0
 93
        1
 44
50.0
173
     0
291
     1
 45
0.0
1001
ACAD
1000
AcDbSavedByObjectVersion
1070
     0
  0
VISUALSTYLE
  5
1B8D
102
{ACAD_REACTORS
330
1B7D
102
}
330
1B7D
100
AcDbVisualStyle
  2
ColorChange
 70
    16
 71
     2
 72
     2
 73
     3
 90
        0
 40
-0.6
 41
-30.0
 62
     5
 63
     8
 74
     1
 91
        4
 64
     7
 65
   257
 75
     1
175
     1
 42
1.0
 92
        8
 66
     8
 43
1.0
 76
     1
 77
     6
 78
     2
 67
     7
 79
     5
170
     0
171
     0
290
     0
174
     0
 93
        1
 44
0.0
173
     0
291
     1
 45
0.0
1001
ACAD
1000
AcDbSavedByObjectVersion
1070
     0
  0
VISUALSTYLE
  5
1B86
102
{ACAD_REACTORS
330
1B7D
102
}
330
1B7D
100
AcDbVisualStyle
  2
Conceptual
 70
     9
 71
     3
 72
     2
 73
     0
 90
        0
 40
-0.6
 41
-30.0
 62
     5
 63
     7
 74
     2
 91
        2
 64
     7
 65
   257
 75
     1
175
     1
 42
40.0
 92
        8
 66
     7
 43
1.0
 76
     1
 77
     6
 78
     2
 67
     7
 79
     3
170
     0
171
     0
290
     0
174
     0
 93
        1
 44
0.0
173
     0
291
     0
 45
0.0
1001
ACAD
1000
AcDbSavedByObjectVersion
1070
     0
  0
VISUALSTYLE
  5
1B88
102
{ACAD_REACTORS
330
1B7D
102
}
330
1B7D
100
AcDbVisualStyle
  2
Dim
 70
    11
 71
     2
 72
     2
 73
     0
 90
        0
 40
-0.6
 41
-30.0
 62
     5
 63
     7
 74
     1
 91
        4
 64
     7
 65
   257
 75
     1
175
     1
 42
1.0
 92
        8
 66
     7
 43
1.0
 76
     1
 77
     6
 78
     2
 67
     7
 79
     5
170
     0
171
     0
290
     0
174
     0
 93
        1
 44
-50.0
173
     0
291
     1
 45
0.0
1001
ACAD
1000
AcDbSavedByObjectVersion
1070
     0
  0
VISUALSTYLE
  5
1B8C
102
{ACAD_REACTORS
330
1B7D
102
}
330
1B7D
100
AcDbVisualStyle
  2
Facepattern
 70
    15
 71
     2
 72
     2
 73
     0
 90
        0
 40
-0.6
 41
-30.0
 62
     5
 63
     7
 74
     1
 91
        4
 64
     7
 65
   257
 75
     1
175
     1
 42
1.0
 92
        8
 66
     7
 43
1.0
 76
     1
 77
     6
 78
     2
 67
     7
 79
     5
170
     0
171
     0
290
     0
174
     0
 93
        1
 44
0.0
173
     0
291
     1
 45
0.0
1001
ACAD
1000
AcDbSavedByObjectVersion
1070
     0
  0
VISUALSTYLE
  5
1B7E
102
{ACAD_REACTORS
330
1B7D
102
}
330
1B7D
100
AcDbVisualStyle
  2
Flat
 70
     0
 71
     2
 72
     1
 73
     1
 90
        2
 40
-0.6
 41
30.0
 62
     5
 63
     7
 74
     0
 91
        4
 64
     7
 65
   257
 75
     1
175
     1
 42
1.0
 92
        8
 66
     7
 43
1.0
 76
     1
 77
     6
 78
     2
 67
     7
 79
     5
170
     0
171
     0
290
     0
174
     0
 93
       13
 44
0.0
173
     0
291
     1
 45
0.0
1001
ACAD
1000
AcDbSavedByObjectVersion
1070
     0
  0
VISUALSTYLE
  5
1B7F
102
{ACAD_REACTORS
330
1B7D
102
}
330
1B7D
100
AcDbVisualStyle
  2
FlatWithEdges
 70
     1
 71
     2
 72
     1
 73
     1
 90
        2
 40
-0.6
 41
30.0
 62
     5
 63
     7
 74
     1
 91
        4
 64
     7
 65
   257
 75
     1
175
     1
 42
1.0
 92
        0
 66
   257
 43
1.0
 76
     1
 77
     6
 78
     2
 67
     7
 79
     5
170
     0
171
     0
290
     0
174
     0
 93
       13
 44
0.0
173
     0
291
     1
 45
0.0
1001
ACAD
1000
AcDbSavedByObjectVersion
1070
     0
  0
VISUALSTYLE
  5
1B80
102
{ACAD_REACTORS
330
1B7D
102
}
330
1B7D
100
AcDbVisualStyle
  2
Gouraud
 70
     2
 71
     2
 72
     2
 73
     1
 90
        2
 40
-0.6
 41
30.0
 62
     5
 63
     7
 74
     0
 91
        4
 64
     7
 65
   257
 75
     1
175
     1
 42
1.0
 92
        0
 66
     7
 43
1.0
 76
     1
 77
     6
 78
     2
 67
     7
 79
     5
170
     0
171
     0
290
     0
174
     0
 93
       13
 44
0.0
173
     0
291
     1
 45
0.0
1001
ACAD
1000
AcDbSavedByObjectVersion
1070
     0
  0
VISUALSTYLE
  5
1B81
102
{ACAD_REACTORS
330
1B7D
102
}
330
1B7D
100
AcDbVisualStyle
  2
GouraudWithEdges
 70
     3
 71
     2
 72
     2
 73
     1
 90
        2
 40
-0.6
 41
30.0
 62
     5
 63
     7
 74
     1
 91
        4
 64
     7
 65
   257
 75
     1
175
     1
 42
1.0
 92
        0
 66
   257
 43
1.0
 76
     1
 77
     6
 78
     2
 67
     7
 79
     5
170
     0
171
     0
290
     0
174
     0
 93
       13
 44
0.0
173
     0
291
     1
 45
0.0
1001
ACAD
1000
AcDbSavedByObjectVersion
1070
     0
  0
VISUALSTYLE
  5
1B8B
102
{ACAD_REACTORS
330
1B7D
102
}
330
1B7D
100
AcDbVisualStyle
  2
Linepattern
 70
    14
 71
     2
 72
     2
 73
     0
 90
        0
 40
-0.6
 41
-30.0
 62
     5
 63
     7
 74
     1
 91
        4
 64
     7
 65
   257
 75
     7
175
     7
 42
1.0
 92
        8
 66
     7
 43
1.0
 76
     1
 77
     6
 78
     2
 67
     7
 79
     5
170
     0
171
     0
290
     0
174
     0
 93
        1
 44
0.0
173
     0
291
     1
 45
0.0
1001
ACAD
1000
AcDbSavedByObjectVersion
1070
     0
  0
VISUALSTYLE
  5
1B87
102
{ACAD_REACTORS
330
1B7D
102
}
330
1B7D
100
AcDbVisualStyle
  2
Realistic
 70
     8
 71
     2
 72
     2
 73
     0
 90
        0
 40
-0.6
 41
-30.0
 62
     5
 63
     7
 74
     1
 91
        0
 64
     7
 65
   257
 75
     1
175
     1
 42
1.0
 92
        8
 66
     8
 43
1.0
 76
     1
 77
     6
 78
     2
 67
     7
 79
     5
170
     0
171
     0
290
     0
174
     0
 93
       13
 44
0.0
173
     0
291
     0
 45
0.0
1001
ACAD
1000
AcDbSavedByObjectVersion
1070
     0
  0
VISUALSTYLE
  5
1B8A
102
{ACAD_REACTORS
330
1B7D
102
}
330
1B7D
100
AcDbVisualStyle
  2
Thicken
 70
    13
 71
     2
 72
     2
 73
     0
 90
        0
 40
-0.6
 41
-30.0
 62
     5
 63
     7
 74
     1
 91
        4
 64
     7
 65
   257
 75
     1
175
     1
 42
1.0
 92
       12
 66
     7
 43
1.0
 76
     1
 77
     6
 78
     2
 67
     7
 79
     5
170
     0
171
     0
290
     0
174
     0
 93
        1
 44
0.0
173
     0
291
     1
 45
0.0
1001
ACAD
1000
AcDbSavedByObjectVersion
1070
     0
  0
DICTIONARYVAR
  5
1C6C
102
{ACAD_REACTORS
330
1C69
102
}
330
1C69
100
DictionaryVariables
280
     0
  1
1:1
  0
DICTIONARYVAR
  5
1C6B
102
{ACAD_REACTORS
330
1C69
102
}
330
1C69
100
DictionaryVariables
280
     0
  1
STANDARD
  0
DICTIONARYVAR
  5
1C6A
102
{ACAD_REACTORS
330
1C69
102
}
330
1C69
100
DictionaryVariables
280
     0
  1
STANDARD
  0
DICTIONARYVAR
  5
1C6F
102
{ACAD_REACTORS
330
1C69
102
}
330
1C69
100
DictionaryVariables
280
     0
  1
1
  0
DICTIONARYVAR
  5
1C6E
102
{ACAD_REACTORS
330
1C69
102
}
330
1C69
100
DictionaryVariables
280
     0
  1
0
  0
DICTIONARYVAR
  5
1C6D
102
{ACAD_REACTORS
330
1C69
102
}
330
1C69
100
DictionaryVariables
280
     0
  1
127
  0
DICTIONARY
  5
1C23
102
{ACAD_REACTORS
330
1C18
102
}
330
1C18
100
AcDbDictionary
281
     1
  0
DICTIONARY
  5
1C7A
330
1BB9
100
AcDbDictionary
280
     1
281
     1
  3
ACAD_XREC_ROUNDTRIP
360
1C7B
  0
DICTIONARY
  5
1C78
330
1BB8
100
AcDbDictionary
280
     1
281
     1
  3
ACAD_XREC_ROUNDTRIP
360
1C79
  0
DICTIONARY
  5
1B6E
330
1B6D
100
AcDbDictionary
280
     1
281
     1
  3
ACAD_XREC_ROUNDTRIP
360
1C75
  3
BUMPTILE
360
1B70
  3
DIFFUSETILE
360
1B6F
  3
OPACITYTILE
360
1B73
  3
REFLECTIONTILE
360
1B72
  3
REFRACTIONTILE
360
1B74
  3
SPECULARTILE
360
1B71
  0
DICTIONARY
  5
1B66
330
1B65
100
AcDbDictionary
280
     1
281
     1
  3
ACAD_XREC_ROUNDTRIP
360
1C74
  3
BUMPTILE
360
1B68
  3
DIFFUSETILE
360
1B67
  3
OPACITYTILE
360
1B6B
  3
REFLECTIONTILE
360
1B6A
  3
REFRACTIONTILE
360
1B6C
  3
SPECULARTILE
360
1B69
  0
DICTIONARY
  5
1B76
330
1B75
100
AcDbDictionary
280
     1
281
     1
  3
ACAD_XREC_ROUNDTRIP
360
1C76
  3
BUMPTILE
360
1B78
  3
DIFFUSETILE
360
1B77
  3
OPACITYTILE
360
1B7B
  3
REFLECTIONTILE
360
1B7A
  3
REFRACTIONTILE
360
1B7C
  3
SPECULARTILE
360
1B79
  0
DICTIONARY
  5
1C70
330
1B90
100
AcDbDictionary
280
     1
281
     1
  3
ACAD_ROUNDTRIP_2008_TABLESTYLE_CELLSTYLEMAP
360
1C71
  3
ACAD_XREC_ROUNDTRIP
360
1C77
  0
XRECORD
  5
1C7B
102
{ACAD_REACTORS
330
1C7A
102
}
330
1C7A
100
AcDbXrecord
280
     1
102
SHADEPLOT
 70
     0
102
SHADEPLOTRESLEVEL
 70
     2
102
SHADEPLOTCUSTOMDPI
 70
   300
  0
XRECORD
  5
1C79
102
{ACAD_REACTORS
330
1C78
102
}
330
1C78
100
AcDbXrecord
280
     1
102
SHADEPLOT
 70
     0
102
SHADEPLOTRESLEVEL
 70
     2
102
SHADEPLOTCUSTOMDPI
 70
   300
  0
XRECORD
  5
1C75
102
{ACAD_REACTORS
330
1B6E
102
}
330
1B6E
100
AcDbXrecord
280
     1
102
MATERIAL
148
0.0
149
0.0
149
0.0
 93
        0
 94
      127
282
     0
 72
     0
 77
     0
171
     0
175
     0
179
     0
273
     0
  0
XRECORD
  5
1B70
102
{ACAD_REACTORS
330
1B6E
102
}
330
1B6E
100
AcDbXrecord
280
     1
270
     1
271
     1
  0
XRECORD
  5
1B6F
102
{ACAD_REACTORS
330
1B6E
102
}
330
1B6E
100
AcDbXrecord
280
     1
270
     1
271
     1
  0
XRECORD
  5
1B73
102
{ACAD_REACTORS
330
1B6E
102
}
330
1B6E
100
AcDbXrecord
280
     1
270
     1
271
     1
  0
XRECORD
  5
1B72
102
{ACAD_REACTORS
330
1B6E
102
}
330
1B6E
100
AcDbXrecord
280
     1
270
     1
271
     1
  0
XRECORD
  5
1B74
102
{ACAD_REACTORS
330
1B6E
102
}
330
1B6E
100
AcDbXrecord
280
     1
270
     1
271
     1
  0
XRECORD
  5
1B71
102
{ACAD_REACTORS
330
1B6E
102
}
330
1B6E
100
AcDbXrecord
280
     1
270
     1
271
     1
  0
XRECORD
  5
1C74
102
{ACAD_REACTORS
330
1B66
102
}
330
1B66
100
AcDbXrecord
280
     1
102
MATERIAL
148
0.0
149
0.0
149
0.0
 93
        0
 94
      127
282
     0
 72
     0
 77
     0
171
     0
175
     0
179
     0
273
     0
  0
XRECORD
  5
1B68
102
{ACAD_REACTORS
330
1B66
102
}
330
1B66
100
AcDbXrecord
280
     1
270
     1
271
     1
  0
XRECORD
  5
1B67
102
{ACAD_REACTORS
330
1B66
102
}
330
1B66
100
AcDbXrecord
280
     1
270
     1
271
     1
  0
XRECORD
  5
1B6B
102
{ACAD_REACTORS
330
1B66
102
}
330
1B66
100
AcDbXrecord
280
     1
270
     1
271
     1
  0
XRECORD
  5
1B6A
102
{ACAD_REACTORS
330
1B66
102
}
330
1B66
100
AcDbXrecord
280
     1
270
     1
271
     1
  0
XRECORD
  5
1B6C
102
{ACAD_REACTORS
330
1B66
102
}
330
1B66
100
AcDbXrecord
280
     1
270
     1
271
     1
  0
XRECORD
  5
1B69
102
{ACAD_REACTORS
330
1B66
102
}
330
1B66
100
AcDbXrecord
280
     1
270
     1
271
     1
  0
XRECORD
  5
1C76
102
{ACAD_REACTORS
330
1B76
102
}
330
1B76
100
AcDbXrecord
280
     1
102
MATERIAL
148
0.0
149
0.0
149
0.0
 93
        0
 94
      127
282
     0
 72
     0
 77
     0
171
     0
175
     0
179
     0
273
     0
  0
XRECORD
  5
1B78
102
{ACAD_REACTORS
330
1B76
102
}
330
1B76
100
AcDbXrecord
280
     1
270
     1
271
     1
  0
XRECORD
  5
1B77
102
{ACAD_REACTORS
330
1B76
102
}
330
1B76
100
AcDbXrecord
280
     1
270
     1
271
     1
  0
XRECORD
  5
1B7B
102
{ACAD_REACTORS
330
1B76
102
}
330
1B76
100
AcDbXrecord
280
     1
270
     1
271
     1
  0
XRECORD
  5
1B7A
102
{ACAD_REACTORS
330
1B76
102
}
330
1B76
100
AcDbXrecord
280
     1
270
     1
271
     1
  0
XRECORD
  5
1B7C
102
{ACAD_REACTORS
330
1B76
102
}
330
1B76
100
AcDbXrecord
280
     1
270
     1
271
     1
  0
XRECORD
  5
1B79
102
{ACAD_REACTORS
330
1B76
102
}
330
1B76
100
AcDbXrecord
280
     1
270
     1
271
     1
  0
CELLSTYLEMAP
  5
1C71
102
{ACAD_REACTORS
330
1C70
102
}
330
1C70
100
AcDbCellStyleMap
 90
        3
300
CELLSTYLE
  1
TABLEFORMAT_BEGIN
 90
        5
170
     1
 91
        0
 92
    32768
 62
   257
 93
        1
300
CONTENTFORMAT
  1
CONTENTFORMAT_BEGIN
 90
        0
 91
        0
 92
      512
 93
        0
300

 40
0.0
140
1.0
 94
        5
 62
     0
340
10
144
0.25
309
CONTENTFORMAT_END
171
     0
 94
        0
309
TABLEFORMAT_END
  1
CELLSTYLE_BEGIN
 90
        1
 91
        1
300
_TITLE
309
CELLSTYLE_END
300
CELLSTYLE
  1
TABLEFORMAT_BEGIN
 90
        5
170
     1
 91
        0
 92
        0
 62
   257
 93
        1
300
CONTENTFORMAT
  1
CONTENTFORMAT_BEGIN
 90
        0
 91
        0
 92
      512
 93
        0
300

 40
0.0
140
1.0
 94
        5
 62
     0
340
10
144
0.18
309
CONTENTFORMAT_END
171
     0
 94
        0
309
TABLEFORMAT_END
  1
CELLSTYLE_BEGIN
 90
        2
 91
        1
300
_HEADER
309
CELLSTYLE_END
300
CELLSTYLE
  1
TABLEFORMAT_BEGIN
 90
        5
170
     1
 91
        0
 92
        0
 62
   257
 93
        1
300
CONTENTFORMAT
  1
CONTENTFORMAT_BEGIN
 90
        0
 91
        0
 92
      512
 93
        0
300

 40
0.0
140
1.0
 94
        2
 62
     0
340
10
144
0.18
309
CONTENTFORMAT_END
171
     0
 94
        0
309
TABLEFORMAT_END
  1
CELLSTYLE_BEGIN
 90
        3
 91
        2
300
_DATA
309
CELLSTYLE_END
  0
XRECORD
  5
1C77
102
{ACAD_REACTORS
330
1C70
102
}
330
1C70
100
AcDbXrecord
280
     1
102
ACAD_ROUNDTRIP_PRE2007_TABLESTYLE
 90
      512
 91
        0
  1

 92
      512
 93
        0
  2

 94
      512
 95
        0
  3

  0
ENDSEC
  0
EOF
